Oops, an error
Loading. Please wait.

Breathe tab

version 1
version 1

Whole song

  • I just tabbed the video lesson that was up here. I... Show more

Video

622 views 12 this week
no commentswrite comment
1 2 3 4 5
x 3
add to favorites
×
Save as Personal and add changes to this tab that will be seen only by you. Learn more ›
×
You can save this tab as Personal to edit and correct it or add notes. All changes will be seen only by you. Learn more »
launch autoscroll
font size
0
reset
how to read this tab
guitar tuner
edit
Autoscroll
slow
fast
+/-
esc
set tempo
stop
About this tab version
I just tabbed the video lesson that was up here. I wasn't entirely sure about his version of the chorus, or how the Bridge I is played rhythmically. Let me know what you guys find. I just wanted it written out so i could learn it better, so here it is. Was this info helpful? Yes No
BREATHE – Laura Marling
Tabbed by: Celeste Fay
Email: celestethefay@gmail.com
Tuning: Open C (CGCGGe)

This is the very end of her I was an Eagle medley.
I tabbed this from quentinames 133’s video lesson because I wanted it tabbed and I know others did too.

I’m not going to tab every strum, y’all can figure that out on your own.

Verse
e|--0----0---0---0---0---0---0---0---0--0--0--0--0---------------|
G|-12---11---9---7---5---4---2---0---0--0--0--0--0---------------|
G|-12---11---9---7---5---4---2---0---0--0--0--0—-0---------------|
C|--0----0---0---0---0---0---0---0---6--4--6--7--4---------------| x 3
G|--0----0---0---0---0---0---0---0---0--0--0--0--0---------------|
C|--0----0---0---0---0---0---0---0---0--0--0--0--0---------------|

I came here to tell you something you already know
The dark before the dawn is the darkest I can go
The calm before the storm is what leaves me here to breathe

Chorus
e|-0---------2--0--2--3--2--0--5-3-2-2-|   |-0--2--3--0----------|
G|-4---------0--0--0--0--0--0--0-0-0-0-|   |-0--0--0--0----------|
G|-0---------0--0--0--0--0--0--0-0-0-0-|x2 |-0--0--0--0----------|
C|-4---------0--0--0--0--0--0--0-0-0-0-|   |-0--0--0--0----------|
G|-0---------0--0--0--0--0--0--0-0-0-0-|   |-0--0--0—-0----------|
C|-0---------0--0--0--0--0--0--0-0-0-0-|   |-0--0--0--0----------|

So Breathe . . . . Bre. . . . . . . . . .athe 

Verse II (repeat everything previously played)
Us of constant banging
Throwing fists against the wall
Screaming at the earth for what
It’s done to one and all
I came here to tell you something you already know
Just breathe
Breathe

Bridge I
e|-0--0--0--0------------------------------------------------------|
G|-0--0--0--0------------------------------------------------------|
G|-0--0--0--0------------------------------------------------------|
C|-0--0--0--0------------------------------------------------------|x 4
G|-4--2--0--0------------------------------------------------------|
C|-0--0--2--0------------------------------------------------------|

How cruel I am to you
Mm, cruel things I do
How cruel you are to me
How cruel time can be

Verse III
I wrote you a book
But I left it out in the rain
Left it there to dry
But it got rained on once again
Us of constant banging
Throwing fists agains the wall
Breathe
Bre. . . . . . .athe

Bridge I again
How cruel you are to me
How cruel time can be
How cruel I was to you
How cruel things I do


Bridge II
e|--3---5---2---3---0---|  
G|--0---0---0---0---0---|  
G|--0---0---0---0---0---|  
C|--4---7---2---4---0---| x 2 
G|--0---0---0---0---0---|  
C|--0---0---0---0---0---|  

When you wake you’ll know I’m gone
And where I’m going there's no one

Bridge I: 

So don’t follow me
Whatever you may hear or see
Don’t follow me
Whatever you may hear or see

Outro 


e|--0----0---0---0---0---0---0---0---0--0--0--0--0---------------|
G|-12---11---9---7---5---4---2---0---0--0--0--0--0---------------|
G|-12---11---9---7---5---4---2---0---0--0--0--0—-0---------------|
C|--0----0---0---0---0---0---0---0---6--4--6--7--4---------------| x 2
G|--0----0---0---0---0---0---0---0---0--0--0--0--0---------------|
C|--0----0---0---0---0---0---0---0---0--0--0--0--0---------------|

e|--0----0---0---0---0---0---0---0---0------------|
G|--0----0---0---0---0---0---0---0---0------------|
G|--0----2---4---5---7---9--10---12--14-----------|
C|--0----0---0---0---0---0---0---0---0------------| x 4 and then finish with 
G|--0----2---4---5---7---9--10---12--14-----------|an open chord
C|--0----0---0---0---0---0---0---0---0------------|

            
            
Suggest correction
Creating personal tab
Creating personal tab
You can edit any tab online and save it as your Personal.

You can edit, replace or remove any tab part or add personal notes – all changes will be seen only by you.

Personal tabs can be accessed anytime from any device, even offline.
Learn more »
Give kudos to tab author, rate the tab!
1 2 3 4 5
comments
print report bad tab
guest
You may want to rate the tab now too:
select rating
Wanna post a correction for this tab? Suggest correction