Oops, an error
Loading. Please wait.

Cross Your Fingers Bass Tab

975 views 6 this week
no commentswrite comment
1 2 3 4 5
please rate
add to favorites
launch autoscroll
font size
0
reset
guitar tuner
Autoscroll
slow
fast
+/-
esc
set tempo
stop
Help us to improve Ultimate-Guitar.com Take our survey!
×
not sure if it's 100% correct but it's in C so it sounds great anyway.

intro:

G|---------------------------|
D|---5-5--5--------2-2--2----|
A|-3--------5----5--------2--| 1x
E|------------5--------------|

Verse:

G|---------------------------|
D|---5-5--5--------2-2--2----|
A|-3--------5----5--------2--| 3x
E|------------5--------------|

Bridge:

G|----------------------|
D|----------------------|
A|-3---2--------------3-| 2x
E|---------5---3--3-3---|

et voila!
G|-----------------------------|
D|-----------------------------|
A|-3---2--------------3------3-| 1x
E|---------5---3--3-3----3-3---|

Chorus:

G|-----------------------------------|
D|-3-3-3-3-3-3-3-3-3-----------------|
A|-------------------3-3-3-3-3-3-3-3-| 2x
E|-----------------------------------|

G|-----------------------------------|
D|-------------------2-2-2-2-3-3-3-3-|
A|-----------------------------------| 2x
E|-5-5-5-5-5-5-5-5-5-----------------|

G|-----------------------------|
D|---------2-------------------|
A|-3---------------------------| 2x
E|-----5-------3-3-3-3-3-3-3-3-|

Verse:

G|---------------------------|
D|---5-5--5--------2-2--2----|
A|-3--------5----5--------2--| 4x
E|------------5--------------|

Chorus:

G|-----------------------------------|
D|-3-3-3-3-3-3-3-3-3-----------------|
A|-------------------3-3-3-3-3-3-3-3-| 2x
E|-----------------------------------|

G|-----------------------------------|
D|-------------------2-2-2-2-3-3-3-3-|
A|-----------------------------------| 2x
E|-5-5-5-5-5-5-5-5-5-----------------|

G|-----------------------------|
D|---------2-------------------|
A|-3---------------------------| 2x
E|-----5-------3-3-3-3-3-3-3-3-|

end:
G|-----|
D|-----|
A|-3~--| 1x
E|-----|

et voila!
Suggest correction
Give kudos to tab author, rate the tab!
1 2 3 4 5
comments
print report bad tab
guest
You may want to rate the tab now too:
select rating
Wanna post a correction for this tab? Suggest correction