Oops, an error
Loading. Please wait.

Cross Your Fingers Tab

26,302 views 18 this week
1 commentread comment
1 2 3 4 5
x 12
add to favorites
launch autoscroll
font size
0
reset
how to read this tab
guitar tuner
Autoscroll
slow
fast
+/-
esc
set tempo
stop
Help us to improve Ultimate-Guitar.com Take our survey!
×
Author
Capo
1st fret
Capo on 1st Fret

How to pick:

For ex. "C" is :
e|--------------------|
B|-------1------1-----|
G|-------0------0-----|
D|------------2-------|
A|----3---------------|
E|--------------------|

Am is the same pattern and for Em, instead
of starting with the "A" string, use "E" and
the other notes are also picked on the string above.


C                 Am         Em
Look down on the body that you have grown,
C               Am              Em
Four mountains stand around you they're not your own.
C                 Am         Em
And light squares and bodies are all you see...

e|-------------------------------------------------------------|
B|-------------------------------------------------------------|
G|--------0----------0---------0--------0------0-----0------0--|
D|--------2----------0---------0--------0------0-----0------0--|     x3
A|----3----------2----------0----------------------------------|
E|----------------------------------3--------3----3------3-----|

     - on third repeat play the 4th position x8 instead of x4

Since you broke down

Since I broke down

Since we broke down

F                               C
Oh I jumped into your grave and died,
F                                           C
And on my word you'll give up your whole life for me
               Am                    Em          F
And you'll be reborn bigger and stronger and less alive...

e|------------------------------------------------|
B|--------------1-------------1-------------------|
G|------------0------------2-----------0----------|
D|--------2------------2---------------2--(x8)----|     x 2
A|----3------------0------------------------------|
E|----------------------------------0-------------|


I...I...I...


I...I...I

C                  Am              Em
Cross your fingers hold your toes, we're all going to die when the

building blows,
C                   Am             Em
Cross your fingers hold your toes, we're all going to die when the

building blows,
C                            Am         Em
And the house that you were born in is crumbling at the corner,
C                Am             Em
Sagging skin and feet of crows, feet of crows.

F                                C
Oh you'll jump into your grave and die
F                                        C
And on my word you'll give up your whole life for me
Am                                 Em             F
And you'll be reborn bigger and stronger and less alive

e|------------------------------------------------|
B|--------------1-------------1-------------------|
G|------------0------------2-----------0----------|
D|--------2------------2---------------2--(x8)----|     x 2
A|----3------------0------------------------------|
E|----------------------------------0-------------|

I...I...I

I...I...I
Suggest correction
comments
print report bad tab
1 comment total.
0 reply
theknuckster 102 Aug 05, 2012 04:18 PM

no capo in the album version (from alas, i cannot swim)

guest
You may want to rate the tab now too:
select rating
Wanna post a correction for this tab? Suggest correction