Oops, an error
Loading. Please wait.

Dont Ask Me Why Tab

20,048 views 21 this week
6 commentsread comments
1 2 3 4 5
accurate
x 10
add to favorites
launch autoscroll
font size
0
reset
how to read this tab
guitar tuner
Tab Pro tools
  • play this tab
  • loop segment
  • change instrument
  • show fretboard
  • metronome
×
Best way to learn
"Dont Ask Me Why"
Autoscroll
slow
fast
+/-
esc
set tempo
stop
Contributor
Tuning
Capo
D G D G B D
4th fret
Laura Marling - Don't Ask Me Why

Open G, capo on 4

Intro
--0--1--3--5--3--1---0h1p0--------0------0------0------0------0---|
--0--1--3--5--3--1---0h1p0--------3------1------0------1------0---|
--x--x--x--x--x--x---x------------0------0------0------0------0---|
--x--x--x--x--x--x---x------------3------2------0------2------0---|
--x--x--x--x--x--x---x------------0------0------0------0------0---|
--x--x--x--x--x--x---x------------0------0------0------0------0---|

Verses
--0------0------0------0------0------0------0---|
--3------5------3------5------0------1------0---|
--2------4------2------4------0------0------0---|
--3------5------3------5------0------2------0---|
--0------0------0------0------0------0------0---|
--0------0------0------0------0------0------0---|

Chorus
--0------0------0------2------0------0------0------0------0------0------0---|
--0------0------1------1------1------0------0------1------0------1------0---|
--4------2------0------0------2------4------2------0------0------0------0---|
--5------3------2------2------0------0------0------2------0------2------0---|
--0------0------0------0------2------0------0------0------0------0------0---|
--0------0------0------0------0------0------0------0------0------0------0---|

Bridge 1
--0--1--3--5--3--1--0h1p0---      -----0------0------0------0------0---|
--0--1--3--5--3--1--0h1p0---      -----3------1------0------1------0---|
--x--x--x--x--x--x---x------      -----0------0------0------0------0---|
--x--x--x--x--x--x---x------ x3   -----3------2------0------2------0---|
--x--x--x--x--x--x---x------      -----0------0------0------0------0---|
--x--x--x--x--x--x---x------      -----0------0------0------0------0---|

Bridge 2
--0------0------0------0------2---------0------0------0------0---|
--0------0------0------1------1---------0------1------0------1---|
--0------0------0------0------0---------0------0------0------0---|
--5------4------3------2------2---------0------2------0------2---|
--0------0------0------0------0---------0------0------0------0---|
--0------0------0------0------0---------0------0------0------0---|

Verse 1
I choose to stay far away from the ones that think
Money is money to share
Don't ask me why and I'll tell you no lie

Verse 2
Sonny don't come here no more
He don't drink from this well
He's done with the world
And done with the girl
And I don't ask him why and he tells me no lie

Chorus
Those of us who are lost and low
We know how you feel
We know it's not right but it's real, but it's real

Verse 3
I don't ask for love and I don't beg for money
I'm just asking for grace and forgiveness now honey
Don't ask me why and I'll tell you no lie

Repeat chorus

Bridge 1
I took the wind from the sea
I took the blood from an arrow
I took the wisdom of spring
And I was thrown and blown and tossed and turned until

Verse 4
Time found its hand and called it an end
Me and time we go way back when
I was a child and I always knew why

Bridge 2
I knew my name, I knew my road
And I stayed away from heavy loads
And still I am low
Oh Lord am I low

Repeat chorus
comments
print report bad tab
6 comments total. Showing first comments.
0 reply
awakemysoul wrote on April 3 2011, 01:13 pm

perfect! pretty simple to play as well

+1 reply
popen_2 wrote on June 17 2012, 07:57 pm

In the chorus, the 4 and 2 on the 2nd string should be 3rd string.

0 reply
nu-folk-numpty wrote on June 29 2012, 04:35 pm

i noticed that but i can't work out how to edit...
:(

I want to post or [tab]
guest
You may want to rate the tab now too:
select rating
Please do not post tabs as comments. Select "correction" instead!