Oops, an error
Loading. Please wait.

Dont Pass Me By tab

799 views 18 this week
2 commentsread comments
1 2 3 4 5
1 last vote to show rating
add to favorites
×
Save as Personal and add changes to this tab that will be seen only by you. Learn more ›
×
You can save this tab as Personal to edit and correct it or add notes. All changes will be seen only by you. Learn more »
launch autoscroll
font size
0
reset
how to read this tab
guitar tuner
edit
Autoscroll
slow
fast
+/-
esc
set tempo
stop
Author
About this tab version
Just all the parts in the song, not tabbed out where they appear in the song. Sometimes played slightly differently when they are repeated. Was this info helpful? Yes No
[Verse]

e|--------0--3p0------0------------0--------3p0------0------------0--------3p0------0------------0--------3p0|
B|-----1----------0h1-----------1-----1----------0h1-----------1-----1----------0h1-----------1-----1--------|
G|-----2------------------------2--------2---------------------2--------2---------------------2--------2-----|
D|-----------------------------------------------------------------------------------------------------------|
A|--0--------------------------------------------------------------------------------------------------------|
E|------------------------0--3---------------------------0--2---------------------------2--2-----------------|

e|-----0----------------------------------------------|
B|-0h1-----0\-3\-6\-9\--12--10--12--10--9--9h10p9h10p9|
G|---------1\-4\-7\-10\-13----------------------------|
D|----------------------------------------------------|
A|---------2\-5\-8\-11\-14----------------------------|
E|----------------------------------------------------| x4

e|--------0--3p0------0------------0--------3p0------0------------0--------3p0------0------------0--------3p0|
B|-----1----------0h1-----------1-----1----------0h1-----------1-----1----------0h1-----------1-----1--------|
G|-----2------------------------2--------2---------------------2--------2---------------------2--------2-----|
D|-----------------------------------------------------------------------------------------------------------|
A|--0--------------------------------------------------------------------------------------------------------|
E|------------------------0--3---------------------------0--2---------------------------2--2-----------------|

e|-----0-----------------------------------------------------------------------------------------------|
B|-0h1-----0\-3\-6\-9\--12--13--15--13--12--12h13p12h13p12---9\--12--13--15--13--12--12h13p12h13p12----|
G|---------1\-4\-7\------------------------------------------10\-13------------------------------------|
D|-----------------------------------------------------------------------------------------------------|
A|---------2\-5\-8\------------------------------------------------------------------------------------|
E|-----------------------------------------------------------------------------------------------------|

[Chorus]
e|--5--5--5--5--5----13-|
B|--5--5--5--5--6----13-|
G|--5--5--5--5--5-------|
D|--5--6--7--6--7-------|
A|----------------------|
E|----------------------| x3

e|--5--5--5--5--5---|
B|--5--5--5--5--6---|
G|--5--5--5--5--5---|
D|--5--6--7--6--7---|
A|------------------|
E|------------------|

"Is it something you make a habit of..." chords:

Am Dm G C

Am C Am C

Then back into second part of verse



************************************

| p  Pull-off
| h  Hammer-on
| \  Slide down

************************************

            
            
Suggest correction
Creating personal tab
Creating personal tab
You can edit any tab online and save it as your Personal.

You can edit, replace or remove any tab part or add personal notes – all changes will be seen only by you.

Personal tabs can be accessed anytime from any device, even offline.
Learn more »
Give kudos to tab author, rate the tab!
1 2 3 4 5
comments
print report bad tab
2 comments total.
0 reply
LauraMarlingFan 38 Apr 14, 2017 12:21 PM

thank you, i look forward to going through this tab and learning this awesome song. if anybody can tab nouel i will be so happy. :)

0 reply
wombatm8 10 Jul 02, 2017 08:42 AM

i noticed in glastonbury, she had capo on 2nd fret. Is this tab played as she would, as I know she uses open g tuning alot. thanks

guest
You may want to rate the tab now too:
select rating
Wanna post a correction for this tab? Suggest correction