Oops, an error
Loading. Please wait.

I Was An Eagle Tab

version 1
version 1

Whole song

Video

22,203 views 54 this week
1 commentread comment
1 2 3 4 5
x 15
add to favorites
launch autoscroll
font size
0
reset
how to read this tab
guitar tuner
Autoscroll
slow
fast
+/-
esc
set tempo
stop
Help us to improve Ultimate-Guitar.com Take our survey!
×
Author
Difficulty
Tuning
intermediate
C G C G C E
Tuning: (Open C) CGCGGe

Listen to the song for strumming patterns or watch here: http://youtu.be/Gg4FucEOfmU for visual cues.

[Intro]
E|-0--0--0--0--0--0--0---0---0------|
C|-0--0--0--0--0--0--0---0---0------|
G|-0--2--4--5--7--9--10--12--14-----|
C|-0--0--0--0--0--0--0---0---0------|
G|-0--2--4--5--7--9--10--12--14-----|
C|-0--0--0--0--0--0--0---0---0------|

E|---0--0--0--0--0--0--0---0---0------|
C|---0--0--0--0--0--0--0---0---0------|
G|---0--2--4--5--7--9--10--12--14-----|
C|---0--0--0--0--0--0--0---0---0------|
G|---0--2--4--5--7--9--10--12--14-----|
C|---0--0--0--0--0--0--0---0---0------|

[Verse 1]
Lyrics are approximately relative to the timing of the first line
E|-0--0---------------------------0-----|
C|-0--0---------------------------0-----|
G|-0--5---------------------------0-----|
C|-0--0---------------------------0-----|
G|-0--0---------------------------0-----|
C|-0--5---------------------------0-----|
       So your grandmother sounds to me
       A woman I would be proud to be
       And you say she reminds you of me
       Every little boy is so naive, ohh

E|-0-------------------0----------------|
C|-0-------------------0----------------|
G|-2/------------------4----------------|
C|-0-------------------0----------------|
G|-2/------------------4----------------|
C|-0-------------------0----------------|
       I will not be a victim of romance
       I will not be a victim of circumstance
       Chance or circumstance or romance
       Or any man who could get his dirty little hands on me
       no no no

[Instrumental]
Same as the intro!

E|-0--0--0--0--0--0--0---0---0------|
C|-0--0--0--0--0--0--0---0---0------|
G|-0--2--4--5--7--9--10--12--14-----|
C|-0--0--0--0--0--0--0---0---0------|
G|-0--2--4--5--7--9--10--12--14-----|
C|-0--0--0--0--0--0--0---0---0------|

E|---0--0--0--0--0--0--0---0---0------|
C|---0--0--0--0--0--0--0---0---0------|
G|---0--2--4--5--7--9--10--12--14-----|
C|---0--0--0--0--0--0--0---0---0------|
G|---0--2--4--5--7--9--10--12--14-----|
C|---0--0--0--0--0--0--0---0---0------|

[Chorus]
E|-10---7--5----3--0-----0----------------|
C|-10---7--5----2--0-----0----------------|
G|-0----0--0----0--0-----5----------------|
C|-0----0--0----0--0-----0----------------|
G|-0----0--0----0--0-----0----------------|
C|-0----0--0----0--0-----5----------------|
   When we were in love, if we were
   When we were in love
   I was an eagle
   And you were a dove

[Instrumental]
Same as the intro!
E|-0--0--0--0--0--0--0---0---0------|
C|-0--0--0--0--0--0--0---0---0------|
G|-0--2--4--5--7--9--10--12--14-----|
C|-0--0--0--0--0--0--0---0---0------|
G|-0--2--4--5--7--9--10--12--14-----|
C|-0--0--0--0--0--0--0---0---0------|

E|---0--0--0--0--0--0--0---0---0------|
C|---0--0--0--0--0--0--0---0---0------|
G|---0--2--4--5--7--9--10--12--14-----|
C|---0--0--0--0--0--0--0---0---0------|
G|---0--2--4--5--7--9--10--12--14-----|
C|---0--0--0--0--0--0--0---0---0------|

[Verse 2]
Lyrics are approximately relative to the timing of the first line
E|-0--0---------------------------0-----|
C|-0--0---------------------------0-----|
G|-0--5---------------------------0-----|
C|-0--0---------------------------0-----|
G|-0--0---------------------------0-----|
C|-0--5---------------------------0-----|

E|-0-------------------0----------------|
C|-0-------------------0----------------|
G|-2/------------------4----------------|
C|-0-------------------0----------------|
G|-2/------------------4----------------|
C|-0-------------------0----------------|

[Chorus]
E|-10---7--5----3--0-----0----------------|
C|-10---7--5----2--0-----0----------------|
G|-0----0--0----0--0-----5----------------|
C|-0----0--0----0--0-----0----------------|
G|-0----0--0----0--0-----0----------------|
C|-0----0--0----0--0-----5----------------|
   When we were in love, if we were
   When we were in love
   I was an eagle
   And you were a dove

[Outro]
Same as the intro!
E|-0--0--0--0--0--0--0---0---0------|
C|-0--0--0--0--0--0--0---0---0------|
G|-0--2--4--5--7--9--10--12--14-----|
C|-0--0--0--0--0--0--0---0---0------|
G|-0--2--4--5--7--9--10--12--14-----|
C|-0--0--0--0--0--0--0---0---0------|

E|---0--0--0--0--0--0--0---0---0------|
C|---0--0--0--0--0--0--0---0---0------|
G|---0--2--4--5--7--9--10--12--14-----|
C|---0--0--0--0--0--0--0---0---0------|
G|---0--2--4--5--7--9--10--12--14-----|
C|---0--0--0--0--0--0--0---0---0------|

************************************

| /  Slide up

************************************
Suggest correction
comments
print report bad tab
1 comment total.
0 reply
noahfulton 10 Oct 09, 2013 07:09 PM

Nice work sounds great on my guitar!!

guest
You may want to rate the tab now too:
select rating
Wanna post a correction for this tab? Suggest correction