Oops, an error
Loading. Please wait.

My Manic And I Tab

version 1
version 1

Whole song

77,803 views 30 this week
7 commentsread comments
1 2 3 4 5
x 19
add to favorites
launch autoscroll
font size
0
reset
how to read this tab
guitar tuner
×
Best way to learn
"My Manic And I"
Autoscroll
slow
fast
+/-
esc
set tempo
stop
Author
Capo
  follow
1st fret
Capo 1

[Intro]
e|-----------------------------------|
B|--5-5--5-5--0-0--0-0--5-5--5-5--0--|
G|--5-5--5-5--7-7--7-7--5-5--5-5--7--|
D|--7-7--7-7--6-6--6-6--7-7--7-7--6--|  
A|-----------------------------------|
E|-5----5----7----7----5----5-----7--|

   He wants...                 ...shape of his nose
e|------------------------------------------|
B|--5-5--5-5--5-5--5-5--5-5--5-5--0-0--0-0--|
G|--5-5--5-5--5-5--5-5--5-5--5-5--7-7--7-7--|
D|--7-7--7-7--7-7--7-7--7-7--7-7--6-6--6-6--|  (x2)
A|------------------------------------------|
E|-5----5----5----5----5----5----7----7-----|

   I don't believe...him
e|------------------------------------------|
B|--5-5--5-5--5-5--5-5--0-0--0-0--0-0--0-0--|
G|--5-5--5-5--5-5--5-5--7-7--7-7--7-7--7-7--|
D|--7-7--7-7--7-7--7-7--6-6--6-6--6-6--6-6--|  
A|------------------------------------------|
E|-5----5----5----5----7----7----7----7-----|

   He greets...               ...sometimes I believe him
e|------------------------------------------|
B|--5-5--5-5--5-5--5-5--5-5--5-5--0-0--0-0--|
G|--5-5--5-5--5-5--5-5--5-5--5-5--7-7--7-7--|
D|--7-7--7-7--7-7--7-7--7-7--7-7--6-6--6-6--|  (x2)
A|------------------------------------------|
E|-5----5----5----5----5----5----7----7-----|

   At one in...             ...by two he is   
e|-----------------------------------------------------|
B|-----------------------------------------------------|
G|-------5-----------5--------------7-----------7------|
D|-----7---7-------7---7----------6---6-------6---6----| 
A|---7-------7---7-------7------8-------8---8-------8--|
E|-5-----------5--------------7-----------7------------|

   by four he...             ...sleep will not
e|-------------------------------------------------|
B|-------------------------------------------------|
G|-------5-----------5--------------7-----------7--|
D|-----7---7-------7---7----------6---6-------6----| 
A|---7-------7---7-------7------8-------8---8------|
E|-5-----------5--------------7-----------7--------|

   I don't believe...him
e|------------------------------------------|
B|--5-5--5-5--5-5--5-5--0-0--0-0--0-0--0-0--|
G|--5-5--5-5--5-5--5-5--7-7--7-7--7-7--7-7--|
D|--7-7--7-7--7-7--7-7--6-6--6-6--6-6--6-6--|  (x2)
A|------------------------------------------|
E|-5----5----5----5----7----7----7----7-----|
  
   I'll wander...                       ...slips to the ground
e|--------------------------------------------|
B|-----------------------------------------0--|
G|--------5------------5-----------5-------7--|
D|------7---7--------7---7-------7---7-----6--|  
A|----7-------7----7-------7---7-------7------|
E|--5------------5-----------5-------------7--|

   A gift...                    ...broken me down
e|------------------------------------------|
B|--5-5--5-5--5-5--5-5--5-5--5-5--0-0--0-0--|
G|--5-5--5-5--5-5--5-5--5-5--5-5--7-7--7-7--|
D|--7-7--7-7--7-7--7-7--7-7--7-7--6-6--6-6--|  
A|------------------------------------------|
E|-5----5----5----5----5----5----7----7-----|

   And I don't believe
e|------------------------------------------|
B|--5-5--5-5--5-5--5-5--0-0--0-0--0-0--0-0--|
G|--5-5--5-5--5-5--5-5--7-7--7-7--7-7--7-7--|
D|--7-7--7-7--7-7--7-7--6-6--6-6--6-6--6-6--|  (x2)
A|------------------------------------------|
E|-5----5----5----5----7----7----7----7-----|

   Oh the God's...
e|------------------|
B|---1---1---0---0--|
G|---2---2---0---0--|
D|---2---2---2---2--|  (x4)
A|-0---0------------|
E|---------0---0----|
  Am      Em

   He believes...
e|---------------------------|
B|-------1------------0------|
G|-----2---2--------0---0----|
D|---2-------2----2-------2--|  (x2)
A|-0-------------------------|
E|--------------0------------|
  Am           Em

   The drugs...
e|------------------|
B|---1---1---0---0--|
G|---2---2---0---0--|
D|---2---2---2---2--|  
A|-0---0------------|
E|---------0---0----|
  Am      Em

   I can't control you...            ...think that you're ill
e|--------------------------------------------------|
B|-------1-----------1-----------1------------------|
G|-----2---2-------2---2-------2---2------2-2--1-1--|
D|---0-------0---0-------0---0-------0----0-0--0-0--|  
A|--------------------------------------------------|
E|-3-----------2-----------1------------0-----0-----|
              ^           ^
      (i just use my thumb for these)   
  
   I can't control you...             ...think that you're ill
e|--------------------------------------------------------------|
B|-------1-----------1-----------1------------------------------|
G|-----2---2-------2---2-------2---2------2-2--1-1---2-2---1-1--|
D|---0-------0---0-------0---0-------0----0-0--0-0---0-0---0-0--|  
A|--------------------------------------------------------------|
E|-3-----------2-----------1------------0-----0----0-----0------|

   And since last...
e|------------------|
B|---1---1---0---0--|
G|---2---2---0---0--|
D|---2---2---2---2--|  (x5)
A|-0---0------------|
E|---------0---0----|
  Am      Em

   And birds were singing...
e|--------------------------------------------------------------|
B|-------1-----------1-----------1------------------------------|
G|-----2---2-------2---2-------2---2------2-2--1-1---1-1---1-1--|
D|---0-------0---0-------0---0-------0----0-0--0-0---0-0---0-0--|  (x2)
A|--------------------------------------------------------------|
E|-3-----------2-----------1------------0-----0----0-----0------|

   And I'm sorry...
e|------------------|
B|---1---1---0---0--|
G|---2---2---0---0--|
D|---2---2---2---2--|  (x4)
A|-0---0------------|
E|---------0---0----|
  Am      Em

   I hardly know you...               ... think that we're ill
e|--------------------------------------------------|
B|-------1-----------1-----------1------------------|
G|-----2---2-------2---2-------2---2------2-2--1-1--|
D|---0-------0---0-------0---0-------0----0-0--0-0--|  
A|--------------------------------------------------|
E|-3-----------2-----------1------------0-----0-----|

   I hardly know you...                ...think that I'm ill
e|--------------------------------------------------------------|
B|-------1-----------1-----------1------------------------------|
G|-----2---2-------2---2-------2---2------2-2--1-1---2-2---1-1--|
D|---0-------0---0-------0---0-------0----0-0--0-0---0-0---0-0--|  
A|--------------------------------------------------------------|
E|-3-----------2-----------1------------0-----0----0-----0------|

   And the God's...
e|------------------|
B|---1---1---0---0--|
G|---2---2---0---0--|
D|---2---2---2---2--|   (the last two repetitions more softly)
A|-0---0------------|
E|---------0---0----|
  Am      Em

   Have no plans...
e|--------------------------------------------------|
B|-------1-----------1-----------1------------------|
G|-----2---2-------2---2-------2---2------2-2--1-1--|
D|---0-------0---0-------0---0-------0----0-0--0-0--|  
A|--------------------------------------------------|
E|-3-----------2-----------1------------0-----0-----|

   But birds are singing...
e|--------------------------------------------------------------|
B|-------1-----------1-----------1------------------------------|
G|-----2---2-------2---2-------2---2------2-2--2-2---1-1---1-1--|
D|---0-------0---0-------0---0-------0----0-0--0-0---0-0---0-0--|  (x2)
A|--------------------------------------------------------------|
E|-3-----------2-----------1------------0-----0----0-----0------|

e|---------0---0--|
B|-------1-----1--|
G|-----2-----2-2--|
D|---2---------2--|
A|-0-----------0--|
E|----------------|
  Am
Suggest correction
comments
print report bad tab
7 comments total. Showing first comments.
+1 reply
Andrewbiles 4,755 Dec 23, 2008 04:18 AM

Excellent tab. I'd worked out most of it but you've helped me out on the picking parts with the moving bass note.
The only thing I would say to possibly correct it is she sometimes plays the A, D, G strings on the barre Am in the first half but I think that's more often live than on the record.
If any corrections are needed they're very minute details and nothing worth worrying about. Nicely done.

0 reply
tomwright 56 Jan 16, 2009 04:41 PM

i like it.. at a glance it looks almost like a crack... i mean not like if you stare at it for ages but just a passing glance makes it look like a mans anus... it is so very, very lovely the magic touch..
i think its truly beautiful!!!
love ya lots man
xxxxxxxxxxx

0 reply
tomwright 56 Jan 16, 2009 04:41 PM

from eminge

guest
You may want to rate the tab now too:
select rating
Wanna post a correction for this tab? Suggest correction