Oops, an error
Loading. Please wait.

Night Terror Tab

version 2
version 2

Solo

2,143 views 3 this week
no commentswrite comment
1 2 3 4 5
please rate
add to favorites
launch autoscroll
font size
0
reset
how to read this tab
guitar tuner
Autoscroll
slow
fast
+/-
esc
set tempo
stop
Help us to improve Ultimate-Guitar.com Take our survey!
×
Contributor
This is the Violin Solo in Laura Marlings 'Night Terror' for guitar.

Somebody already has a version of this up but i think a few notes don't sound right so 
is my guess of how it goes.

My first tab so let me know what you think.:)


e|------------------------------------------------------------------------------------|
B|------------------------------------------------------------------------------------|
G|-6~---8-9-8--6--/13~--11--11-9-6-6--8-9--11--11--9-8-6---8--9---11--11--9-8---------|
D|------------------------------------------------------------------------------------|
A|------------------------------------------------------------------------------------|
E|------------------------------------------------------------------------------------|


e|-----------------------------------------------------------------------------------|
B|-----------------------------------------------------------------------------------|
G|-6~---8-9-8--6--/13~--11--11-9-6-6--8-9--11--11--9-8-6---8--9---11--11--9-8--------|
D|-----------------------------------------------------------------------------------|
A|-----------------------------------------------------------------------------------|
E|-----------------------------------------------------------------------------------|


e|-----------------------------------------------------------------------------------------|
B|-----------------------------------------------------------------------------------------|
G|-9~---11-12-11--9--/16~--14--14-12-9-9--11-12--14--14--12-11-9---11--12---14--14--12-11--|
D|-----------------------------------------------------------------------------------------|
A|-----------------------------------------------------------------------------------------|
E|-----------------------------------------------------------------------------------------|

e|----------------------------------------------------------------------------------------|
B|----------------------------------------------------------------------------------------|
G|-9~---11-12-11--9--/16~--14--14-12-9-9--11-12--14--14--12-11-9--11--12---14--14--12-11--|
D|----------------------------------------------------------------------------------------|
A|----------------------------------------------------------------------------------------|
E|----------------------------------------------------------------------------------------|
comments
We did not receive enough feedback on this tab! Please rate:
print report bad tab
1 2 3 4 5
I want to post or [tab]
guest
You may want to rate the tab now too:
select rating
Please do not post tabs as comments. Select "correction" instead!