Oops, an error
Loading. Please wait.

Rest In The Bed Tab

version 1
version 1

Whole song

2,907 views 1 this week
no commentswrite comment
1 2 3 4 5
1 last vote to show rating
add to favorites
launch autoscroll
font size
0
reset
how to read this tab
guitar tuner
Autoscroll
slow
fast
+/-
esc
set tempo
stop
Help us to improve Ultimate-Guitar.com Take our survey!
×
Author
Difficulty
Tuning
Capo
intermediate
D G D G B D
4th fret
Rest in the bed: laura marling:
tabbed by Pengelly :) x almost completely accurate-  tabbed from  various live 
performances by laura marling.
capo 4-5  - tabbed relative to the capo -
tuning  DGDGA#D
( song is in parts and named so that its easier to play along)
intro: A)
D|--------------0-----------------------------------------------------0--|
A#|-------0--------------------------------------0--------------0--------|
  G|------------------6p3-0----------------------------------------------|
  D|--5----------------------------------5-------------------------------|
  G|------------------------------------------------------0--------------|
  D|--------------------------------------------------0------------------|
(B)
D|--------------0-------------0-------------0---------0--|
A#|-------0---------------0------------0----------0------|
  G|-----------------6-----------------------------------|
  D|--5---------------------------7----------3-----------|
  G|-----------------------------------------------------|
  D|-----------------------------------------------------|
repeat one then return to intro, do that twice.

then play the intro once then play this:
(C)
D|--------------0----------------------0-------------------------|
A#|-------0------0-------------0---------0------------0-------0--|
  G|----0------------0-------0---------------0-------0-------0---|
  D|--3---------------------2------------------------------------|
  G|-------------------------------------------------3------2----|
  D|-------------------------------------------------------------|

(D)
D|--------------0---------0---0----------0-----|
A#|-------------0------0-----0-------0------0--|
  G|-------------0-------------0---------------|
  D|-------------0-------------0---------------|
  G|-------------0-------------0---------------|
  D|-------------0-------------0---------------|

X = 2 (E)
D|-----------------------------------------------------------|
A#|---4---0-------2------0----0----0- 0---0--0----0----0-----|
G|--------0------------0--------------------0-------------0--|
  D|---------------------------------------------------------|
  G|---0---------0--------------------0----------0-----------|
  D|---------------------------------------------------------|
on third time  (F)
D|------------------------------------------------|
A#|---4---0-------2------0-----7----0----4----0---|
G|--------0------------0------------0----------0--|
  D|----------------------------------------------|
  G|---0---------0---------------0----------0-----|
  D|----------------------------------------------|
(G) repeat X once more than -

D|-----------------------------------------------------------------|
A#|---------0-------0------------0---------0---------0----------0--|
  G|------0--------0------------0---------0---------0-----------0--|
  D|---------------------------------------------------------------|
  G|--3------4--------------0----------0--------0-----------0------|
  D|---------------------------------------------------------------|
begin intro + second bit again.
than:

'the sirens come' (H)
  D|-------------------------4--------------6---------------0--|
  A#|--------------------5-------------5---------------5-------|
  G|------------------7-------------7-------------7------------|
  D|-----------------------------------------------------------|
  G|-----------------------------------------------------------|
  D|-----------------------------------------------------------|

"as i, believe in you" (I)

D|--------------------------------------|
A#|----------4--------4--------2-----2--|
  G|--------0--------0--------0-----0---|
  D|----3--------3--------2------2------|
  G|------------------------------------|
  D|------------------------------------|
(J)
D|----------------------------------------------------------------------------------------------|
A#|-----0----4--------4------2-------2-------7------7----4-----4---2----2---0-----0-0----0------|
  G|---------------0----------------0---------------0------------0---------0---------0-------0--|
  D|--------------------------------------------------------------------------------------------|
  G|----0-----0-----0---------0------0-------0-------0----0---------0---------0-------0---------|
  D|--------------------------------------------------------------------------------------------|

( by watching live performances you can pretty much get the knack of recognizing where
in the song the chords are played.)
repeat from C  until you get to :H where you play this instead >

(strum)
D|----5-----6---0------0---0---0--|
A#|---0-----0--0------4---2---0---|
  G|---7-----7--7------0---0---0--|
  D|---0-----0--0------3---2---0--|
  G|---0-----0--0------0---0---0--|
  D|---0-----0--0------0---0---0--|

play A X2 then B X1 but strum the chords. and then gradually begin to pick A and then B
once each, continue on D, repeat J once more than to finish off, play either one of
these endings
 (when she plays it live she ends on these two strings.)
D|---------------------------------------------------------------------|
A#|--------------------------------------------------------------------|
G|---------------------------------------------------------------------|
D|---------------------------------------------------------------------|
G|----0----------------------------------------------------------------|
D|-0-------------------------------------------------------------------|
I'm not very experienced when it comes to tuning by ear but the ending on the album is 
something like this.
D|----------------------------------------------------------------------|
A#|---------------------------------------------------------------------|
G|----------------------------------------------------------------------|
D|----------------------0-----------------------------------------------|
G|-------- 0 -2----3------2--0------------------------------------------|
D|------3---------------------------------------------------------------|
song structure.
A +B
C X2
D X2
E
F
G
H
I
J
second chorus
E
F
G
H
- alternate chorus.
- end
Suggest correction
Give kudos to tab author, rate the tab!
1 2 3 4 5
comments
print report bad tab
guest
You may want to rate the tab now too:
select rating
Wanna post a correction for this tab? Suggest correction