Oops, an error
Loading. Please wait.

Rest In The Bed Tab

version 2
version 2

Whole song

6,218 views 9 this week
3 commentsread comments
1 2 3 4 5
excellent!
x 7
add to favorites
launch autoscroll
font size
0
reset
how to read this tab
guitar tuner
Autoscroll
slow
fast
+/-
esc
set tempo
stop
Help us to improve Ultimate-Guitar.com Take our survey!
×
Author
Difficulty
Capo
intermediate
2nd fret
Rest in the Bed
Laura Marling

DGDGBbD
Capo 2 [album]

Intro
D ----------|----------|--------------------|-----------------|
Bb-0-4---4--|-0-4---4--|-0-4---2---/7---4---|-4---2---0-------|
G -----0----|-----0----|-----0---0----0---0-|---0---0---0---0-|
D ----0---0-|----0---0-|----0---0----0---0--|--0---0---0---0--|
G -0-0---0--|-0-0---0--|-0-0---0----0---0---|-0---0---0---0---|
D ----------|----------|--------------------|-----------------|

Verse
D --------------------|--------------------|
Bb-4----2----0----0---|-4----2----0----0---|
G ---0----0----0----0-|---0----0----0----0-|
D --0----0----0----0--|--0----0----0----0--|
G -0----0----0----0---|-0----0----0----0---|
D --------------------|--------------------|
There lies a man of my heart | A fine and complete work of art

D ---------------------|---------------------|
Bb-4----2----7----4----|-4----2----0----0----|
G ---0----0----0----0--|---0----0----0----0--|
D --0----0----0----0---|--0----0----0----0---|
G -0----0----0----0----|-0----0----0----0----|
D ---------------------|---------------------|
Here I his woman, his home and his heart | And proud to be playing that part

D -------------------------------|
Bb-4----2----0----0----0----0----|
G ---0----0----0----0----0----0--|
D --0----0----0----0----0----0---|
G -3----2----0----0----0----0----|
D -------------------------------|
And proud to be playing that part

Chorus
D -----0-----------------0-|-----0-----------------0-|
Bb---0-----------0-----0---|---0-----------0-----0---|
G -------5-2---------------|-------5-2---------------|
D -5--------3--5-----------|-5--------3--5-----------|
G -------------------0-----|-------------------0-----|
D -----------------0-------|-----------------0-------|
Rest in the bed of my bones | All that I want is a home

D -----0-----0-----0-----0-|-----0---------|
Bb---0-----0-----0-----0---|---0------2----|
G -------5------2----------|-------5-----3-|
D -5------------------3----|-5-------------|
G -------------------------|---------------|
D -------------------------|---------------|
And all you can do is promise bold | That you won’t let me grow

D -------0-----------0-----|--------------|
Bb-----0---0-------0---0---|-----0------0-|
G ---0-------0---0-------0-|---0------0---|
D -3-----------2-----------|--------------|
G -------------------------|-3------2-----|
D -------------------------|--------------|
Dark or cold | As long as we both shall live

Transition
D -----0-|
Bb---0---|
G -0-----|  4x
D -0-----|
G -0-----|
D -------|

Bridge
D -5------7------5------7-----|-5------7------5------7-----|
Bb-----0------0------0------0-|-----0------0------0------0-|
G ---0------0------0------0---|---0------0------0------0---|
D -0------0------0------0-----|-0------0------0------0-----|
G ----------------------------|----------------------------|
D ----------------------------|----------------------------|
The bite will come | and shall feel your call as a sound

D -5------5------3-----3------|-2------2------2------2-----|
Bb-----0------0------0------0-|-----0------0------0------0-|
G ---0------0------0------0---|---0------0------0------0---|
D -0------0------0------0-----|-0------0------0------0-----|
G ----------------------------|----------------------------|
D ----------------------------|----------------------------|
As I believe in you

Transition
D ----------|----------|--------------------|-----------------|
Bb-0-4---4--|-0-4---4--|-0-4---2---/7---4---|-4---2---0-------|
G -----0----|-----0----|-----0---0----0---0-|---0---0---0---0-|
D ----0---0-|----0---0-|----0---0----0---0--|--0---0---0---0--|
G -0-0---0--|-0-0---0--|-0-0---0----0---0---|-0---0---0---0---|
D ----------|----------|--------------------|-----------------|

Verse
D -----------------------------|
Bb-4---4--2---2--0---0--0---0--|
G -0---0--0---0--0---0--0---0--|
D ---0------0------0------0----|
G -0------0------0------0------|
D -----------------------------|
The first hill’s the hardest I'm sure

D -----------------------------|
Bb-4---4--2---2--0---0--0---0--|
G -0---0--0---0--0---0--0---0--|
D ---0------0------0------0----|
G -0------0------0------0------|
D -----------------------------|
Where our shadows come to the shore

D -----------------------------|
Bb-4---4--2---2--7---7--4---4--|
G -0---0--0---0--0---0--0---0--|
D ---0------0------0------0----|
G -0------0------0------0------|
D -----------------------------|
Know that it's you and I till the end

D -----------------------------|
Bb-4---4--2---2--4----2--0---0-|
G -0---0--0---0--0----0--0---0-|
D ---0------0------0-------0---|
G -0------0------3----2--0-----|
D -----------------------------|
And all I want from life is to hold your hand

Transition
D -------|
Bb-0-----|
G -----0-|  3x
D ---0---|
G -0-----|
D -------|

Chorus
D -----0-----------------0-|-----0-----------------0-|
Bb---0-----------0-----0---|---0-----------0-----0---|
G -------5-2---------------|-------5-2---------------|
D -5--------3--5-----------|-5--------3--5-----------|
G -------------------0-----|-------------------0-----|
D -----------------0-------|-----------------0-------|
All that I have are these bones | All that I want is a home

D -----0-----0-----0-----0-|-----0---------|
Bb---0-----0-----0-----0---|---0------2----|
G -------5------2----------|-------5-----3-|
D -5------------------3----|-5-------------|
G -------------------------|---------------|
D -------------------------|---------------|
And all you can do is promise bold | That you won’t let me grow

D -------0-----------0-----|--------------|
Bb-----0---0-------0---0---|-----0------0-|
G ---0-------0---0-------0-|---0------0---|
D -3-----------2-----------|--------------|
G -------------------------|-3------2-----|
D -------------------------|--------------|
Dark or cold | As long as we both shall live

Transition
D -----0-|
Bb---0---|
G -0-----|  4x
D -0-----|
G -0-----|
D -------|

Bridge
D -5------7------5------7-----|-5------7------5------7-----|
Bb-0------0------0------0-----|-0------0------0------0-----|
G -----0------0------0------0-|-----0------0------0------0-|
D ---0------0------0------0---|---0------0------0------0---|
G -0------0------0------0-----|-0------0------0------0-----|
D ----------------------------|----------------------------|
The sirens come | They always will

D -5------5------3------3-----|-2------2------2------2-----|
Bb-0------0------0------0-----|-0------0------0------0-----|
G -----0------0------0------0-|-----0------0------0------0-|
D ---0------0------0------0---|---0------0------0------0---|
G -0------0------0------0-----|-0------0------0------0-----|
D ----------------------------|----------------------------|
But the dart between my heart and his | Is as good as a diamond chain

Transition
D -----0-|
Bb---0---|
G -0-----|  4x
D -0-----|
G -0-----|
D -------|

Chorus [with strumming]
D -----0-----------------0-|-----0-----------------0-|
Bb---0-----------0-----0---|---0-----------0-----0---|
G -------5-2---------------|-------5-2---------------|
D -5--------3--5-----------|-5--------3--5-----------|
G -------------------0-----|-------------------0-----|
D -----------------0-------|-----------------0-------|
Rest in the bed of my bones | All that I want is a home

D -----0-----0-----0-----0-|-----0---------|
Bb---0-----0-----0-----0---|---0------2----|
G -------5------2----------|-------5-----3-|
D -5------------------3----|-5-------------|
G -------------------------|---------------|
D -------------------------|---------------|
And all you can do is promise bold | That you won’t let me grow

D -------0-----------0-----|--------------|
Bb-----0---0-------0---0---|-----0------0-|
G ---0-------0---0-------0-|---0------0---|
D -3-----------2-----------|--------------|
G -------------------------|-3------2-----|
D -------------------------|--------------|
Dark or cold | As long as we both shall live

Outro
D -------------------------|
Bb-------------------------|
G -----0-----0-----0-----0-|
D ---0-----0-----0-----0---|
G -0-----0-----0-----0-----|
D -------------------------|

D ----------|----------|--------------------|-----------------|
Bb-0-4---4--|-0-4---4--|-0-4---2---/7---4---|-4---2---0-------|
G -----0----|-----0----|-----0---0----0---0-|---0---0---0---0-|
D ----0---0-|----0---0-|----0---0----0---0--|--0---0---0---0--|
G -0-0---0--|-0-0---0--|-0-0---0----0---0---|-0---0---0---0---|
D ----------|----------|--------------------|-----------------|

D ----------------------------|
Bb----------------------------|
G -----------------------0----|
D ---0-------0--------0-----0-|
G -0---2--3-----2--0----------|
D ----------------------------|
Suggest correction
What's this?
You can suggest a correction to this tab. Community and Mods will review your correction and vote to approve or reject it.
comments
print report bad tab
3 comments total.
0 reply
SallyWater 11 wrote on September 6 2012, 09:45 am

great tabs!!
thx!!!!!!!!!

0 reply
bbhood 17 wrote on September 12 2012, 07:03 pm

Amazing!!! I've been wanting to learn this soooo bad! Thank so much!

0 reply
noahfulton 15 wrote on October 8 2013, 06:19 pm

NICE WORK!

guest
You may want to rate the tab now too:
select rating
Please do not post tabs as comments. Select "correction" instead!