Oops, an error
Loading. Please wait.

The Muse Chords

9,650 views 12 this week
1 commentread comment
1 2 3 4 5
accurate
x 3
add to favorites
launch autoscroll
font size
0
reset
transpose
0
reset
simplify chords
display chords
guitar tuner
Autoscroll
slow
fast
+/-
esc
set tempo
stop
Help us to improve Ultimate-Guitar.com Take our survey!
×
Author
Capo
2nd fret
-------------------------------------------------------------------------------
                             Laura Marling - The Muse
-------------------------------------------------------------------------------
Tabbed by:Itay Tal
Email:vonjuby@gmail.com

Tuning:capo 2.
-D-
-A-
-G-
-D-
-G-
-E-
This (great) song (by the folk princess) uses these chords (refers to after tuning and 
capo)and its shaped like these

=G=  =Gm6=  =D7sus4=  =A#== =Gm6(2)= =Dm=
-0-   -0-     -5-      -3-    -2-    -3-
-2-   -1-     -0-      -1-    -1-    -0-
-0-   -0-     -5-      -3-    -0-    -2-
-0-   -2-     -0-      -0-    -x-    -0-
-0-   -0-     -x-      -x-    -x-    -x-
-x-   -x-     -x-      -x-    -x-    -x-



G                Gm6
    God's work is plans
G                      Gm6       D7sus4 A#   Gm6(2) Dm
    I stand here with a man that talked to me so candidly

More than you need to.
=========================================================
the chords picking pattern and rythem is same for all verses.
However you got these part in the song where the time signature becomes 12\8
and it goes like this:

D|---------------------------2------------------|
A|---------------------------1------------------|
G|---------------------------0------------------|
D|------0-2-3-----0-2-3------2------------------|
G|0-2-3------0-2-3-----0--2--0------------------|
E|----------------------------------------------|

If you enjoyed please rate so I can be glad that I helped someone.
Suggest correction
Give kudos to tab author, rate the tab!
1 2 3 4 5
comments
print report bad tab
1 comment total.
0 reply
popen_2 10 wrote on March 11 2012, 09:09 pm

I think she plays "Bb" like this:

-3-
-0-
-3-
-0-
-x-
-x-

guest
You may want to rate the tab now too:
select rating
Please do not post tabs as comments. Select "correction" instead!