Oops, an error
Loading. Please wait.

Where Can I Go Tab

7,203 views 15 this week
no commentswrite comment
1 2 3 4 5
excellent!
x 6
add to favorites
launch autoscroll
font size
0
reset
how to read this tab
guitar tuner
Autoscroll
slow
fast
+/-
esc
set tempo
stop
Help us to improve Ultimate-Guitar.com Take our survey!
×
Author
Difficulty
Tuning
novice
D G D G B D
Laura Marling - Where Can I Go?

Tuning - DGDGBD, Open G (low to high)

I'm just going to tab the chord patterns, because the picking should be fairly easy to 
figure out yourselves.

Intro/verse (hammer on and pull off the 2010 chord)

d|------0--|
B|-0----1--|
G|-0----0--|
D|-0----2--|
G|-0-------|
D|---------|

Repeat this several times until...

PRE CHORUS

  Late at night he'll come to me and he'll tell me I'm alone
d|--------------0--------------------0-----------------0----|
B|-0------------0--------------------3-----------------1----|
G|-0------------0--------------------0-----------------0----|
D|-0------------4--------------------3-----------------2----|
G|-0------------0--------------------0-----------------0----|
D|----------------------------------------------------------|

   Don't you think I don't already know...
d|-0-----------------------------------------------0-------------0-----|
B|-1---------------------------------------0-------1-------0-----1--0--|
G|-0---------------------------------------0-------0-------0-----0--0--|
D|-1---------------------------------------0-------2-------0-----2--0--|
G|-0---------------------------------------0---------------0--------0--|
D|---------------------------------------------------------------------|


CHORUS

          All I see is road
d|---------------------------|
B|-1------------3------------|
G|-0------------0------------|
D|-2------------4------------|
G|-2------------4------------|
D|---------------------------|

         No one takes me home
d|---------------------------|
B|-1------------3------------|
G|-0------------0------------|
D|-2------------4------------|
G|-2------------4------------|
D|---------------------------|

   Wheeeeere   Wheeeeere
d|---------------------------|
B|-5---3---1---5---3---1-----|
G|-0---0---0---0---0---0-----|
D|-5---4---2---5---4---2-----|
G|-5---4---2---5---4---2-----|
D|---------------------------|

  Can I go?
d|------0--|
B|-0----1--|
G|-0----0--|
D|-0----2--|
G|-0-------|
D|---------|

Continue with the verse riff until you hit the pre chorus and chorus again until Laura 
sings 'can I go?' again.
This time play this new riff instead of the verse riff:

  Can I go?
d|----------------------|
B|-0--1--3--1--0h1p0h1--|
G|-0--0--0--0--0-0-0-0--|
D|-0--2--3--2--0h2p0h2--|
G|-0--0--0--0--0-0-0-0--|
D|----------------------|

Repeat this riff a couple of times before going straight back to the chorus:

CHORUS

          All I see is road
d|---------------------------|
B|-1------------3------------|
G|-0------------0------------|
D|-2------------4------------|
G|-2------------4------------|
D|---------------------------|

         No one takes me home
d|---------------------------|
B|-1------------3------------|
G|-0------------0------------|
D|-2------------4------------|
G|-2------------4------------|
D|---------------------------|

   Wheeeeere   Wheeeeere
d|---------------------------|
B|-5---3---1---5---3---1-----|
G|-0---0---0---0---0---0-----|
D|-5---4---2---5---4---2-----|
G|-5---4---2---5---4---2-----|
D|---------------------------|

  Can I go?
d|----------------------|
B|-0--1--3--1--0h1p0h1--|
G|-0--0--0--0--0-0-0-0--|
D|-0--2--3--2--0h2p0h2--|
G|-0--0--0--0--0-0-0-0--|
D|----------------------|

Then basically repeat this to the end.

This is my first tab so hopefully it all makes sense. If not I sincerely apologise.

Thanks,
Sam
Suggest correction
comments
print report bad tab
guest
You may want to rate the tab now too:
select rating
Please do not post tabs as comments. Select "correction" instead!