Oops, an error
Loading. Please wait.

Worship Me Tab

73 views 36 this week
no commentswrite comment
1 2 3 4 5
1 last vote to show rating
add to favorites
launch autoscroll
font size
0
reset
how to read this tab
guitar tuner
Autoscroll
slow
fast
+/-
esc
set tempo
stop
Help us to improve Ultimate-Guitar.com Take our survey!
×
Author
Difficulty
Tuning
intermediate
D A D F# A D
[Intro]
D |------0------------------0----------0-------0------------------------------|
A |----0-----------0---0-------------0-------0-----0---0---0---0---0---0---0--|
F#|--------------------------------0-------0----------------------------------| 
D |----------------------0-----------------------------------0---2---0--------|
A |--------------0---4-------------------------------0---4---------------4---0|
D |--0---------------------------0-------0-------0----------------------------|

D |-------0-------0---------0-------0-------0--------0------------------------|
A |-----0-------0---------0-------0-------0--------0-----0---0---0---0---0---0|
F#|---0-------0---------0-------0-------0--------0----------------------------|
D |----------------------------------------------------5---4---2---0----------|
A |-4-------4-------4/5-------5-------5-------5------------------------4---2--|
D |---------------------------------------------------------------------------|

D |-------0----------0-------0-------0----------0---------0-------0-------0---|
A |-----0----------0-------0-------0--------------------0-------0-------0-----|
F#|---0----------0-------0-------0----------0---------0-------0-------0-------|
D |---------------------------------------------------------------------------|
A |-0-------------------------------------------------------------------------|
D |----------/5--------5-------5------5/12---12----0-------0--------0---------|

[Verse 1]
D |-------0--------------------------0-------0--------------------------------|
A |-----0------0---0---0---0-------0-------0-----0---0---0---0---0---0---0---0|
F#|---0--------------------------0-------0------------------------------------| 
D |----------------------0---------------------------------0---2---0----------|
A |--------------0---4-----------------------------0---4---------------4---0--|
D |-0--------0----------------0-------0-------0-------------------------------|
        Little boy....                          I know you want something from

D |-------0-------0---------0-------0-------0--------0------------------------|
A |-----0-------0---------0-------0-------0--------0------0---0---0---0---0---|
F#|---0-------0---------0-------0-------0--------0----------------------------|
D |-----------------------------------------------------5---4---2---0---------|
A |-4-------4-------4/5-------5-------5-------5-------------------------4-----|
D |---------------------------------------------------------------------------|
    me....                                             Yes, I may be blind,

D |------------0----------0-------0-------0-------0---------------------------|
A |----0-----0----------0-------0-------0-------0--------0---0---0---0---0----|
F#|--------0----------0-------0-------0-------0-------------------------------|
D |----------------------------------------------------5---4---2---0----------|
A |--2---0-------------------------------------------------------------4------|
D |---------------/5-------5--------5-------5---------------------------------|
    but  I  am free....                            Don't you try and take that

D |-----------0----------0-------0-------0-------0----------------------------|
A |---0-----0----------0-------0-------0-------0----------0---0---0---0-------|
F#|-------0----------0-------0-------0-------0--------------------------------|
D |------------------------------------------------------------------0--------|
A |-2---0---------------------------------------------------0---4-------------|
D |---------------/5-------5-------5-------5------------0---------------------|
    away  from    me...                       Little girl...

D |--------0-------0-------------------------------------------0-------0------|
A |------0-------0-------0---0---0---0---0---0---0---0-------0-------0--------|
F#|----0-------0-------------------------------------------0-------0----------|
D |--------------------------------0---2---0----------------------------------|
A |------------------------0---4---------------4---0-----4-------4------------|
D |-0-------0---------0-------------------------------------------------------|
                          I know you think that I'm  a  mystery....

D |---------0--------0-------0-------0----------------------------------0-----|
A |-------0--------0-------0-------0--------0---0---0---0---0---0-----0-------|
F#|-----0--------0-------0-------0----------------------------------0---------|
D |---------------------------------------5---4---2---0-----------------------|
A |-4/5--------5-------5-------5--------------------------4---2---0-----------|
D |---------------------------------------------------------------------------|
                                       Yes, you might be blind but you are 

D |--------0-------0-------0-------0----------------------------------0-------|
A |------0-------0-------0-------0--------0---0---0---0---0---0-----0---------|
F#|----0-------0-------0-------0----------------------------------0-----------|
D |-------------------------------------5---4---2---0-------------------------|
A |-----------------------------------------------------4---2---0-------------|
D |-/5-------5-------5-------5------------------------------------------------|
    free...                          Don't you cry and wish that away from  

D |--------0-------0-------0-------0-------0----------------------------------|
A |------0-------0-------0-------0-------0------------------------------------|
F#|----0-------0-------0-------0-------0--------------------------------------|
D |---------------------------------------------------------------------------|
A |---------------------------------------------------------------------------|
D |-/5-------5-------5-------5-------5----------------------------------------|
    me....                                  

[Chorus 1]
D |--------0-------0-------0-------0-------0--------0-------0-------0------0--|
A |------0-------0-------0-------0-------0--------0-------0-------0------0----|
F#|----3-------5-------5------5--------3--------5-------5-------5------3------|
D |---------------------------------------------------------------------------|
A |---------------------------------------------------------------------------|
D |-4-------5-------5------5---------4--------5------5--------5------4--------|
   It's god...                      you need...                     it's

D |--------0-------0-------0------0-------0-------0---------0-----------------|
A |------0-------0-------0------0-------0-------0---------0-------0------0----|
F#|----5-------8-------7------3-------5-------5---------5---------------------| 
D |---------------------------------------------------------------------------|
A |---------------------------------------------------------------------------|
D |--5------5/9------7------4-------5-------5--------5--------5/12-----12-----|
     god.....               you      need....

[Verse 2]
D |-------0-------0-------0-------0-------------------------0-------0---------|
A |-----0-------0-------0-------0-----0---0---0---0-------0-------0-----------|
F#|---0-------0-------0-------0-------------------------0-------0-------------| 
D |---------------------------------------------0-----------------------------|
A |-------------------------------------0---4---------------------------------|
D |-0-------0-------0-------0-------0-----------------0-------0---------------|
                            We're young...

D |-----------------------------------------0-------0---------0-------0-------|
A |-----0---0---0---0---0---0---0---0-----0-------0---------0-------0---------|
F#|-------------------------------------0-------0---------0-------0-----------| 
D |--------------0---2---0----------------------------------------------------|
A |-------0---4---------------4---0---4-------4-------4/5-------5-------------|
D |--0------------------------------------------------------------------------|
       We're young and lost.......                        

D |-------0--------0--------------------------------0-------0--------0--------|
A |-----0--------0------0---0---0---0---0---0-----0-------0--------0----------|
F#|---0--------0--------------------------------0-------0--------0------------|
D |-------------------5---4---2---0-------------------------------------------|
A |-5--------5------------------------4---2---0-------------------------------|
D |--------------------------------------------------/5--------5--------------|
                  And need something to put our hopes up...                       

D |-------0-------0----------------------------------------0--------0---------|
A |-----0-------0------0---0---0---0---0---0---0---0-----0--------0-----------|
F#|---0-------0----------------------------------------0--------0-------------|
D |------------------5---4---2---0---5---4---2---0----------------------------|
A |---------------------------------------------------------------------------|
D |-5-------5----------------------------------------/5--------5--------------|
                   Need something    to protect us...

[Chorus 2]
D |--------0-------0-------0-------0-------0--------0-------0-------0------0--|
A |------0-------0-------0-------0-------0--------0-------0-------0------0----|
F#|----3-------5-------5------5--------3--------5-------5-------5------3------|
D |---------------------------------------------------------------------------|
A |---------------------------------------------------------------------------|
D |-4-------5-------5------5---------4--------5------5--------5------4--------|
   It's god...                      you need...                     it's

D |--------0-------0-------0------0-------0-------0---------0-----------------|
A |------0-------0-------0------0-------0-------0---------0-------0------0----|
F#|----5-------8-------7------3-------5-------5---------5---------------------| 
D |---------------------------------------------------------------------------|
A |---------------------------------------------------------------------------|
D |--5------5/9------7------4-------5-------5--------5--------5---/---7-------|
     god.....               you      need...

[Bridge]
D |-------0-------0------0------0-------0------0------0-------0---------------|
A |-----0-------0------0------0-------0------0------0-------0-----------------|
F#|---8-------8------7------7-------8------8------7-------7-------------------| x2
D |---------------------------------------------------------------------------|
A |---------------------------------------------------------------------------|
D |-9-------9------7------7-------9------9-----7--------7---------------------|
    Sit down and worship  me...                     

D |-------0-------0------0------0-------0------0------0-------0-------0------0|
A |-----0-------0------0------0------0------0-------0-------0-------0------0--|
F#|---8-------8------7------7-------1------1------1-------1-------8------8----| 
D |---------------------------------------------------------------------------|
A |---------------------------------------------------------------------------|
D |-9-------9------7------7-------2------2------2-------2-------9------9------|
    Sit down and worship  me......

D |-------0-------0-------0-------0------0------0-------0------0-------0------|
A |-----0-------0-------0-------0------0------0-------0------0-------0--------|
F#|---7-------7-------1------1------1-------1-------8------8-------7----------| 
D |---------------------------------------------------------------------------|
A |---------------------------------------------------------------------------|
D |-7-------7-------2------2------2-------2-------9------9-------7------------|
                  me........

D |-------0-------0-------0-------0-------------------------------------------|
A |-----0-------0-------0-------0---------------------------------------------|
F#|---7-------7-------7-------7-----------------------------------------------| 
D |---------------------------------------------------------------------------|
A |---------------------------------------------------------------------------|
D |-7-------7-------7-------7-------------------------------------------------|

D |-------------------0-------0-----------------------------0--------0--------|
A |----------0--------------------------0----------0-------------------------0|
F#|--------0--------5-------5---------5----------0--------5--------5-------5--| 
D |------0--------0-------0---------0----------0--------0--------0-------0----|
A |--*12*----------------------------------*12*-------------------------------|
D |-------------5-------5--------5--------------------5--------5-------5------|

D |--------------------0-------0---------0------0-------0---------0-------0---|
A |---------0-----------------------------------------------------------------|
F#|-------0----------5-------5--------5-------5-------5--------5--------5-----| x2 
D |-----0----------0-------0---------0------0-------0---------0-------0-------|
A |-*12*----------------------------------------------------------------------|
D |-------------5-------5--------5--------5-------5--------5--------5---------|
    Forgive me...

D |--------------------0-------0---------0------0-------0---------0-----------|
A |---------0---------------------------------------------------------------0-|
F#|-------0----------5-------5--------5-------5-------5--------5----------0---|
D |-----0----------0-------0---------0------0-------0---------0---------0-----|
A |-*12*------------------------------------------------------------*12*------|
D |-------------5-------5--------5--------5-------5--------5------------------|
    Forgive me.....                                              Forgive me...

D |---------0-------0---------0------0-------0---------0-------0--------------|
A |-----------------------------------------------------------------0----0----|
F#|-------5-------5--------5-------5-------5--------5--------5----------------|  
D |-----0-------0---------0------0-------0---------0-------0------------------|
A |---------------------------------------------------------------------------|
D |--5-------5--------5--------5-------5--------5--------5--------5--/--7-----|

D |-------0-------0-------0-------0-------0-------0-------0-------0-----------|
A |-----0-------0-------0-------0-------0-------0-------0-------0-------------|
F#|---8-------8-------7-------7-------8-------8-------7-------7---------------| x2
D |---------------------------------------------------------------------------|
A |---------------------------------------------------------------------------|
D |-9-------9-------7-------7-------9-------9-------7-------7-----------------|
    Sit down and worship me...   Devote your lives to peace...

D |-------0-------0-------0-------0------0------0-------0------0--------------|
A |-----0-------0-------0-------0------0------0-------0------0----------------|
F#|---1-------1-------1------1------8-------8-------7------7------------------| x2
D |---------------------------------------------------------------------------| [for the second ending, play
A |---------------------------------------------------------------------------|  that last 3 extra times]
D |-2-------2-------2------2------9-------9-------7------7--------------------|
   And breathe....

[Outro]
D |--------------------------0--------0-------0-------------------------------|
A |----0----0---0----0---0----------0-------0-----0---0---0---0---0---0---0---|
F#|-------------------------------0-------0-----------------------------------| 
D |-----------------------0---------------------------------0---2---0---------|
A |---------------0---4-----------------------------0---4---------------4---0-|
D |-/12--12---0-----------------0-------0-------0------------------------------|

D |-------0-------0---------0-------0-------0--------0------------------------|
A |-----0-------0---------0-------0-------0--------0-----0---0---0---0---0---0|
F#|---0-------0---------0-------0-------0--------0----------------------------|
D |----------------------------------------------------5---4---2---0----------|
A |-4-------4-------4/5-------5-------5-------5------------------------4---2--|
D |---------------------------------------------------------------------------|

                                                                          [let ring~~~]
D |-------0----------0-------0-------0-------0-------0--------0--------------0|
A |-----0----------0-------0-------0-------0-------0--------0------------0----|
F#|---0----------0-------0-------0-------0-------0--------0---------0---------|
D |---------------------------------------------------------------------------|
A |-0-------------------------------------------------------------------------|
D |----------/5--------5-------5-------5-------5--------5-------5-------------|
                                               (slow down for end)

************************************

| /  Slide up
| *  Natural harmonic
| ~  Vibrato

************************************
Suggest correction
Give kudos to tab author, rate the tab!
1 2 3 4 5
comments
print report bad tab
guest
You may want to rate the tab now too:
select rating
Wanna post a correction for this tab? Suggest correction