Oops, an error
Loading. Please wait.

You Know tab

version 3
version 3

Whole song

Video

85 views 3 this week
no commentswrite comment
1 2 3 4 5
3 more votes to show rating
add to favorites
×
Save as Personal and add changes to this tab that will be seen only by you. Learn more ›
×
You can save this tab as Personal to edit and correct it or add notes. All changes will be seen only by you. Learn more »
launch autoscroll
font size
0
reset
how to read this tab
guitar tuner
edit
Autoscroll
slow
fast
+/-
esc
set tempo
stop
[Verse]
e|--0----0----0----0----|--0--0--0-- 0 -0-0--------|
C|--5----4----3----2----|--0--0--0-- 0 -0-0--------|
G|--5----4----3----2----|--5--4--2-- 0 -0-0--------|
C|--0----0----0----0----|--0--0--0--2h4-2-0--------|  x4
G|--0----0----0----0----|--5--4--2-- 0 -0-0--------|
C|--0----0----0----0----|--0--0--0--2h4-2-0--------|
    
Damn all those people
Who don't lose control
Who will never take a foot out of life
You might not think that I care
But you don't know what I know

And damn all those hippies
Who stomp empty footed
Upon all what's good
All what's pure of the world
You might not think that I care
But you don't know what I know

And bless all those mothers
Who do all they can
Just to take the faults out of the line
I might not know what it's like
But I'm glad that you know

[Chorus]
e|--7----8----7----8----|--7----8----7----8----|
C|--7----9----7----9----|--7----9----7----9----|
G|--0----0----0----0----|--0----0----0----0----|
C|--0----0----0----0----|--0----0----0----0----| 
G|--0----0----0----0----|--0----0----0----0----|
C|--0----0----0----0----|--0----0----0----0----|

Give me a minute there
Just a minute now
It'll come back to me

And I was so sure
But you free wheelin troubadour
You took my mind off the scene

e|--0--0--0---0--0-0--------|
C|--0--0--0---0--0-0--------|
G|--5--4--2---0--0-0--------|
G|--0--0--0--2h4-2-0--------|
G|--5--4--2---0--0-0--------|
C|--0--0--0--2h4-2-0--------|

And you, I know, I know
I know that you know

[Verse]
e|--0----0----0----0----|--0--0--0-- 0 -0-0--------|
C|--5----4----3----2----|--0--0--0-- 0 -0-0--------|
G|--5----4----3----2----|--5--4--2-- 0 -0-0--------|
C|--0----0----0----0----|--0--0--0--2h4-2-0--------|  x2
G|--0----0----0----0----|--5--4--2-- 0 -0-0--------|
C|--0----0----0----0----|--0--0--0--2h4-2-0--------|

You asked me blind once
If I was a child once I said I'm really not sure
How can you know
How can you know
What it is you don't know

We were a pair once
Of no such despair once
We were a child then I'm sure
If we were a child then we are children no more

[Chorus]
e|--7----8----7----8----|--7----8----7----8----|
C|--7----9----7----9----|--7----9----7----9----|
G|--0----0----0----0----|--0----0----0----0----|
C|--0----0----0----0----|--0----0----0----0----| 
G|--0----0----0----0----|--0----0----0----0----|
C|--0----0----0----0----|--0----0----0----0----|

Give me a minute there
Just a minute now
It'll come back to me

And I was so sure
But you free wheelin troubadour
You took my mind off the scene

e|--0--0--0-- 0 -0-0--------|
C|--0--0--0-- 0 -0-0--------|
G|--5--4--2-- 0 -0-0--------| x2
G|--0--0--0--2h4-2-0--------|
G|--5--4--2-- 0 -0-0--------|
C|--0--0--0--2h4-2-0--------|

And you, I know, I know
I know, I know that you know
You know, you know, you know
when I know that you know



************************************

| h  Hammer-on
|    

************************************

            
            
Suggest correction
Creating personal tab
Creating personal tab
You can edit any tab online and save it as your Personal.

You can edit, replace or remove any tab part or add personal notes – all changes will be seen only by you.

Personal tabs can be accessed anytime from any device, even offline.
Learn more »
Give kudos to tab author, rate the tab!
1 2 3 4 5
comments
print report bad tab
guest
You may want to rate the tab now too:
select rating
Wanna post a correction for this tab? Suggest correction