Oops, an error
Loading. Please wait.

Everythings Alright tab

version 3
version 3

Whole song

Interactive

682 views 1 this week
1 commentread comment
1 2 3 4 5
x 3
add to favorites
×
Save as Personal and add changes to this tab that will be seen only by you. Learn more ›
×
You can save this tab as Personal to edit and correct it or add notes. All changes will be seen only by you. Learn more »
launch autoscroll
font size
0
reset
how to read this tab
guitar tuner
edit
Autoscroll
slow
fast
+/-
esc
set tempo
stop
Author
Difficulty
-------------------------------------------------------------------------------
                             Everythings Alright - Laura Shigihara
-------------------------------------------------------------------------------
Tabbed by: Alex Rain Aldo
E-mail: xeru_zeros@yahoo.com
mistakes may be found in this tab. Feel free to leave a feedback or correct this tab if u found this
weird.

Tuning: Standard (no capo)
e:---------------0--------------3-----------------0--------------3--|
B:---------1--3--------1-----0--0-----------1--3--------1-----0--0--|
G:------0-----------0-----0-----0--------0-----------0-----0-----0--|
D:------------------------------2--------------------------------2--|
A:---3--------------------------2-----3--------------------------2--|
E:------------------------------0--------------------------------0--|

e:--------0--------0-----0-----0--3--0----------------0--------0-----0-----0--3--0-----|
B:-----1--------0-----------3-----------3----------1--------0-----------3-----------3--|
G:-------------------------------------------------------------------------------------|
D:-------------------------------------------------------------------------------------|
A:--3-------------------------------------------3--------------------------------------|
E:-----------0--------1-----------------3----------------0--------1-----------------3--|

e:--------5--------5-----------0----------------------------5--------5-----------0-----------------|
B:-----6--------5--------1--3-----1-----1--1--0----------6--------5--------1--3-----1-----1--1--0--|
G:-----------------------------------2-------------------------------------------------2-----------|
D:-------------------------------------------------------------------------------------------------|
A:--5-----------------3-------------------------------5-----------------3--------------------------|
E:-----------5--------------------1-----------3----------------5--------------------1-----------3--|

e:--------0--3--5--------------5--5--7--8--7--3-----------0--0--1--1--0--1--0--1--0--0--|
B:--1--3--------------0----------------------------1------------------------------------|
G:-------------------------------------------------2------------------------------------|
D:-------------------------------------------------2------------------------------------|
A:--------------5-----------------5-----------------------------------------------------|
E:-----------------------3-----------------------------------1-----------0--------------|

e:-----------0-----0--1--3--|
B:-----1--3-----1-----------|
G:--2-----------------------|
D:--------------------------|
A:--------------------------|
E:--------------------------|

e:-----------0--3--5--------------5--5--7--8--7--3------0--6--5--3--|
B:--1--1--3--------------0------------------------------------------|
G:------------------------------------------------------------------|
D:------------------------------------------------------------------|
A:-----------------5-----------------5------------------------------|
E:--------------------------3---------------------------------------|

e:--0--0---------------0-----------|
B:--------1--1------1-----3--1--1--|
G:---------------------------------|
D:---------------------------------|
A:-----------3---------------------|
E:-----1------------------------3--|

e:------------0--------------3-----------------0--------------3--|
B:------1--3--------1-----0--0-----------1--3--------1-----0--0--|
G:---0-----------0-----0-----0--------0-----------0-----0-----0--|
D:---------------------------2--------------------------------2--|
A:---------------------------2-----3--------------------------2--|
E:---------------------------0--------------------------------0--|

e:--------0--------0-----0-----0--3--0----------------0--------0-----0-----0--3--0-----|
B:-----1--------0-----------3-----------3----------1--------0-----------3-----------3--|
G:-------------------------------------------------------------------------------------|
D:-------------------------------------------------------------------------------------|
A:--3-------------------------------------------3--------------------------------------|
E:-----------0--------1-----------------3----------------0--------1-----------------3--|

e:--------5--------5-----------0----------------------------5--------5-----------0-----------------|
B:-----6--------5--------1--3-----1-----1--1--0----------6--------5--------1--3-----1-----1--1--0--|
G:-----------------------------------2-------------------------------------------------2-----------|
D:-------------------------------------------------------------------------------------------------|
A:--5-----------------3-------------------------------5-----------------3--------------------------|
E:-----------5--------------------1-----------3----------------5--------------------1-----------3--|

e:-----------0--3--5--------------5--5--7--8--7--3-----------0--0--1--1--0--1--0--1--0--0--|
B:--1--1--3--------------0----------------------------1------------------------------------|
G:----------------------------------------------------2------------------------------------|
D:----------------------------------------------------2------------------------------------|
A:-----------------5-----------------5-----------------------------------------------------|
E:--------------------------3-----------------------------------1-----------0--------------|

e:-----------0--3--5--------------5--5--7--8--7--3------0--6--5--3--|
B:--1--1--3--------------0------------------------------------------|
G:------------------------------------------------------------------|
D:------------------------------------------------------------------|
A:-----------------5-----------------5------------------------------|
E:--------------------------3---------------------------------------|

e:--0--0---------------0----------------0--0---------------0-----------|
B:--------1--1------1-----3--1--1-------------1--1------1-----3--1--1--|
G:---------------------------------------------------------------------|
D:---------------------------------------------------------------------|
A:-----------3-----------------------------------3---------------------|
E:-----1-----------------------------------1---------------------------|

e:---------------0--------------3-----------------0--------------3-------0--|
B:---------1--3--------1--1--0--0-----------1--3--------1--1--0--0-------1--|
G:------0-----------0-----------0--------0-----------0-----------0-------0--|
D:------------------------------2--------------------------------2-------2--|
A:---3--------------------------2-----3--------------------------2-------3--|
E:------------------------------0--------------------------------0-------x--|




************************************

| /   slide up
| \   slide down
| h   hammer-on
| p   pull-off
| ~   vibrato
| +   harmonic
| x   Mute note
| b   Bend
| pb  Pre-bend
| br  Bend release
| pbr Pre-bend release
| brb Bend release bend

************************************

            
            
Suggest correction
Creating personal tab
Creating personal tab
You can edit any tab online and save it as your Personal.

You can edit, replace or remove any tab part or add personal notes – all changes will be seen only by you.

Personal tabs can be accessed anytime from any device, even offline.
Learn more »
Give kudos to tab author, rate the tab!
1 2 3 4 5
comments
print report bad tab
1 comment total.
0 reply
yohanntamayo1 10 Apr 20, 2017 09:17 AM

great job, felt as if there were a few unnecessary/excess, otherwise ok

guest
You may want to rate the tab now too:
select rating
Wanna post a correction for this tab? Suggest correction