Oops, an error
Loading. Please wait.

Halloween One And Two tab

1,262 views 1 this week
2 commentsread comments
1 2 3 4 5
x 3
add to favorites
×
Save as Personal and add changes to this tab that will be seen only by you. Learn more ›
×
You can save this tab as Personal to edit and correct it or add notes. All changes will be seen only by you. Learn more »
launch autoscroll
font size
0
reset
how to read this tab
guitar tuner
edit
Autoscroll
slow
fast
+/-
esc
set tempo
stop
Author
Difficulty
Laura Stevenson - Halloween One and Two

Intro:
e|------------------------------------------------------------------------------|
B|------------------------------------------------------------------------------|
G|-0-0-0-0----0--0--0-0-0-0-0-0-0-0-0-----0-0-0-0----0--0--0-0-0-0-0-----0-0----|
D|5-5-5-5-5/10-10-10-9-5-5-5-0-4-4-4-2h4-5-5-5-5-5/10-10-10-9-5-5-5-0h4-5-5-5---|
A|------------------------------------------------------------------------------|
E|------------------------------------------------------------------------------|

   "I am underneath"                            "I am underneath"            "Watch me..."
e|-----------------------------------------------------------------------------|
B|-----------------------------------------------------------------------------|
G|-0-0-0-0----0--0--0-0-0-0-0-0-0-0-0-----0-0-0-0----0--0--0-0-0-0-0-0-0-0-0-0-|
D|5-5-5-5-5/10-10-10-9-5-5-5-0-4-4-4-2h4-5-5-5-5-5/10-10-10-9-5-5-5-5-5-5-4-0--|
A|-----------------------------------------------------------------------------|
E|-----------------------------------------------------------------------------|

     "...Take your life.    Watch me take your..."
e|---------------------------------------------------|
B|---------------------------------------------------|
G|---0---0----0---0---0---0-----------0---0----0---0-|
D|-2---2----2---2---0---0---0-0-0-0-2---2----2---2---|
A|2-2-2-2--3-3-3-3---2-2-2---2---2-2-2-2-2--3-3-3-3--|
E|-----------------3-------3---2---------------------|

"...lifeeeeeeee"
e|------------------------------------------------------------------------------|
B|------------------------------------------------------------------------------|
G|-0-0-0-0----0--0--0-0-0-0-0-0-0-0-0-----0-0-0-0----0--0--0-0-0-0-0-----0-0----|
D|5-5-5-5-5/10-10-10-9-5-5-5-0-4-4-4-2h4-5-5-5-5-5/10-10-10-9-5-5-5-0h4-5-5-5---|
A|------------------------------------------------------------------------------|
E|------------------------------------------------------------------------------|

   "I am overlooked"                    "I hear every word you say, watch what you say..."
e|-----------------------------------------------------------------------------|
B|-----------------------------------------------------------------------------|
G|-0-0-0-0----0--0--0-0-0-0-0-0-0-0-0-----0-0-0-0----0--0--0-0-0-0-0-0-0-0-0-0-|
D|5-5-5-5-5/10-10-10-9-5-5-5-0-4-4-4-2h4-5-5-5-5-5/10-10-10-9-5-5-5-5-5-5-4-0--|
A|-----------------------------------------------------------------------------|
E|-----------------------------------------------------------------------------|

 ...I am underneath  I am underneath"
e|---------------------------------------------------|
B|---------------------------------------------------|
G|---0---0----0---0---0---0-----------0---0----0---0-|
D|-2---2----2---2---0---0---0-0-0-0-2---2----2---2---|
A|2-2-2-2--3-3-3-3---2-2-2---2---2-2-2-2-2--3-3-3-3--|
E|-----------------3-------3---2---------------------|

                 "Eeeeeeeeyeaaaaaahh  Eeeeeeeyeaaaaaahhh  Eeeeeeyeaeaaaahhhhaaaaaahhhhhhhh"
e|----------------------------------------------------------------------------|
B|----------------------------------------------------------------------------|
G|-0-0-0-0----0--0-0-0-0-0-0-0----0--0-0-0-0-0-0-0----0--0-0-0-0-0-0-0-0-0-0--|
D|5-5-5-5-5/10-10-9-9-5-5-5-5-5/10-10-9-9-5-5-5-5-5/10-10-9-9-5-5-5-5-4-4-0-0-|
A|----------------------------------------------------------------------------|
E|----------------------------------------------------------------------------|

Then go into an Em chord and from here on we're just slamming on Em, C, and G chords in 
repeat until whenever you feel like having the intense part be over.

(I'm writing this with the intent of only having a guitar to play the song)

After that's done, go back into fingerpicking the Intro again for a couple passes or 
whatever you like and then when you want to end, the outro goes something like this:

e|-----------------------------------------------------|
B|----------------------------------(ritardando)-------|
G|-0-0-0-0----0--0--0-0--0--0--0-0--0-0-0-0-0-0-0----0-|
D|5-5-5-5-5/10-10-10-9-12-12-12-9-10-9-7-4-5-5-5-0h4-5-|
A|-----------------------------------------------------|
E|-----------------------------------------------------|

            
            
Suggest correction
Creating personal tab
Creating personal tab
You can edit any tab online and save it as your Personal.

You can edit, replace or remove any tab part or add personal notes – all changes will be seen only by you.

Personal tabs can be accessed anytime from any device, even offline.
Learn more »
Give kudos to tab author, rate the tab!
1 2 3 4 5
comments
print report bad tab
2 comments total.
0 reply
Aurepelia 10 Feb 01, 2014 02:32 PM

The strings seem to be in the wrong order, I think should go from 'e' up the top, to 'E' down the bottom. Also the line that has the 5 5 5/10 10 etc. should be on D and the 0 0 0 0 should be on G. And everything else should be flipped (but are on the right strings).

Sorry if this is confusing, but it is a fantastic tab and well transcribed, just a little flipped.

guest
You may want to rate the tab now too:
select rating
Wanna post a correction for this tab? Suggest correction