Oops, an error
Loading. Please wait.

The Healthy One chords

6,035 views 42 this week
1 commentread comment
1 2 3 4 5
x 6
add to favorites
×
Save as Personal and add changes to this tab that will be seen only by you. Learn more ›
×
You can save this tab as Personal to edit and correct it or add notes. All changes will be seen only by you. Learn more »
launch autoscroll
font size
0
reset
transpose
0
reset
display chords
guitar tuner
edit
Autoscroll
slow
fast
+/-
esc
set tempo
stop
Author
Difficulty
Strumming
There is no strumming pattern for this song yet. and get +5 IQ
Glockenspiel/Accordion Part  
e|----------------------------------------------0----0-----------|
B|----------1-0-----------------------------1-3--------3--1-0-1--|
G|--------0------0------------------------0-------2--------------|
D|------2------------0-2-0--------------2------------------------| x2
A|-3--3------------3--------3-2-3-----3--------------------------|
E|---------------------------------------------------------------|

C F Am G
C F Am G
C F Am G
C F Am G

C        F
Hey, you lucky kid
Am                   G            C
The others have come down with it
       F     Am      G      C
In the early stages, baby
   F              Am                 G
So that means you have to watch them carefully
   F              F            C          G
So keep them from running near the corner
F            F        C    G
When you are playing, play nice
F            F         Am          Am
And mind the nice lady three times daily
F                F            G                   C
She'll give them something to make it, to make it go away
F                 Am                G
And you complain, you complain, you complain

C F Am G
C F Am G
C F Am G

C  F           Am             G     C
Oh deary, your mother's got a fever
    F            Am                  G
And clearly your daddy's gonna leave her
C    F          Am        G              C 
F Am G     C
That leaves you with your little sisters, oh
        F                Am              G     C
And you know they didn't mean to cut you
     F      Am                    G         C
Just had to see if your blood was sick, too
         F                  Am                      G        C
And it's clear with all the critters weakening your sisters
         F                Am               G             F
And your system's running quick and not as sickly as you think

        C         Am
And you will live long
         G                    F
You will bury them all in the ground
         C         Am
And your body will grow
          G          F
And you'll bury them all

        C         Am
And you will live long
         G                    F
You will bury them all in the ground
         C         Am
And your body will grow
         G          F
And you'll bury them all

        C         Am
And you will live long
         G                    F
You will bury them all in the ground
         C         G
And your body will grow
                           C F Am G
It hurts to be the healthy one

C F Am G
C F Am G
C F Am G

            
            
Suggest correction
Creating personal tab
Creating personal tab
You can edit any tab online and save it as your Personal.

You can edit, replace or remove any tab part or add personal notes – all changes will be seen only by you.

Personal tabs can be accessed anytime from any device, even offline.
Learn more »
comments
print report bad tab
1 comment total.
0 reply
psnotsure 1,829 Apr 15, 2013 01:59 PM

Great song, great tab! Spot on. I'm just gonna correct the format of tab in the intro, as the strings aren't usually displayed top-bottom. Very good though!

E|-------7-5-5--------------------------|
B|-------------------5------------------|
G|-------------5-5-7---4-5-7-5----------|
D|-----5--------------------------------|
A|--------------------------------------|
E|-3-3----------------------------------|

E|-------7-5-5--------------------------|
B|-------------------5------------------|
G|-------------5-5-7---7-5-4-5----------|
D|-----5--------------------------------|
A|--------------------------------------|
E|-3-3----------------------------------|

guest
You may want to rate the tab now too:
select rating
Wanna post a correction for this tab? Suggest correction