Oops, an error
Loading. Please wait.

Whats The Pressure bass

1,177 views 6 this week
no commentswrite comment
1 2 3 4 5
2 more votes to show rating
add to favorites
×
Save as Personal and add changes to this tab that will be seen only by you. Learn more ›
×
You can save this tab as Personal to edit and correct it or add notes. All changes will be seen only by you. Learn more »
launch autoscroll
font size
0
reset
guitar tuner
edit
Autoscroll
slow
fast
+/-
esc
set tempo
stop
Author
Difficulty
Disco fever ♥

       Intro = MR x1
     Verse 1 = MR x2
Pre-Chorus 1 = PC1
    Chorus 1 = C1
     Verse 2 = V2
Pre-Chorus 2 = PC2
    Chorus 2 = C2
      Bridge = B
Final Chorus = FC


[MAIN RIFF]

G|---------------------------------|---------------------------------|
D|---------------------------------|---------------------------------|
A|---------------------------------|-----------------------------0-1-|
E|-2-------2-------2-------2-----2-|---2-2---0---1---2---------------|
   1 e + a 2 e + a 3 e + a 4 e + a   1 e + a 2 e + a 3 e + a 4 e + a 

G|---------------------------------|---------------------------------|
D|---------------------------------|---------------------------------|
A|-2-------2-------2-------2-----0-|---0-0---0---0---0---------------|
E|---------------------------------|-----------------------------0-1-|
   1 e + a 2 e + a 3 e + a 4 e + a   1 e + a 2 e + a 3 e + a 4 e + a 


[PRE-CHORUS 1]

G|---------------------------------|---------------------------------|
D|-------------2h4-----------------|-------------1h2-----------------|
A|---------------------------------|-----------------------------0---|
E|-2---------------x-0h2---2-------|-0-------0---------0-0---0-------|
   1 e + a 2 e + a 3 e + a 4 e + a   1 e + a 2 e + a 3 e + a 4 e + a 

G|---------------------------------|---------------------------------|
D|---------------------------------|---------------------------------|
A|-2-------2-----2---2-2---2---0---|-2-------2-----2-----0-1-2-------|
E|---------------------------------|-------------------0---------0-1-|
   1 e + a 2 e + a 3 e + a 4 e + a   1 e + a 2 e + a 3 e + a 4 e + a

G|---------------------------------|---------------------------------|
D|-------------2h4-------------4---|-------------0h2-----------------|
A|---------------------------------|-----------------------------0---|
E|-2-----------------0-2---2-------|-0-------0---------0-0---0-------|
   1 e + a 2 e + a 3 e + a 4 e + a   1 e + a 2 e + a 3 e + a 4 e + a 

                                     ring-------------------|
G|---------------------------------|---------------------------------|
D|---------------------------------|---------------------------------|
A|-2-------2-----2---2-2---2---0---|-2-----------------------2-2-----|
E|---------------------------------|---------------------------------|
   1 e + a 2 e + a 3 e + a 4 e + a   1 e + a 2 e + a 3 e + a 4 e + a


[CHORUS 1]

G|---------------2---2-------------|---------------------------------|
D|---------------------------------|---------------------------------|
A|-0-------0-----------0-------0-1-|-2-------2-----2---2-2---0-------|
E|---------------------------------|-----------------------------0-1-|
   1 e + a 2 e + a 3 e + a 4 e + a   1 e + a 2 e + a 3 e + a 4 e + a 

G|---------------------------------|---------------------------------|
D|-------------2-4-----------------|-------------2-4-----------------|
A|---------------------------------|---------------------------------|
E|-2-------2---------0-2-------0-1-|-2-------2---------0-2---0-1-2---|
   1 e + a 2 e + a 3 e + a 4 e + a   1 e + a 2 e + a 3 e + a 4 e + a 

G|---------------2---2-------------|---------------------------------|
D|---------------------------------|-------------1h2-----------------|
A|-0-------0-----------0-------0---|---------------------------------|
E|---------------------------------|-0-------0---------0-0---0---0-1-|
   1 e + a 2 e + a 3 e + a 4 e + a   1 e + a 2 e + a 3 e + a 4 e + a 

G|---------------------------------|---------------------------------|
D|---------------------------------|---------------------------------|
A|---------------------------------|---------------------------------|
E|-2-------2-----2---2-2-------0-1-|-2-------2-----2---2-2-----------|
   1 e + a 2 e + a 3 e + a 4 e + a   1 e + a 2 e + a 3 e + a 4 e + a 


[BREAK]
                             l.r.-|
G|-----2-3-4-----------------------|
D|-------------2-3-4---------------|
A|-----------2---------2-3-4-------|
E|-------------------2-------0-----|
   1 e + a 2 e + a 3 e + a 4 e + a



[VERSE 2] (3 measures tacet)

G|---------------------------------|
D|---------------------------------|
A|---------------------------------|
E|-----------------------------0-1-|
   1 e + a 2 e + a 3 e + a 4 e + a

G|---------------------------------|---------------------------------|
D|---------------------------------|---------------------------------|
A|---------------------------------|-----------------------------0-1-|
E|-2-------2-------2-------2-----2-|---2-2---0---1---2---------------|
   1 e + a 2 e + a 3 e + a 4 e + a   1 e + a 2 e + a 3 e + a 4 e + a 

G|---------------------------------|---------------------------------|
D|---------------------------------|------------------/7~------------|
A|-2-------2-------2-------2-----0-|---0-0---0---0---x---------------|
E|---------------------------------|-----------------------------0-1-|
   1 e + a 2 e + a 3 e + a 4 e + a   1 e + a 2 e + a 3 e + a 4 e + a 


[PRE-CHORUS 2]

G|---------------------------------|---------------------------------|
D|-------------2-4-----------------|---------------2---2-------------|
A|---------------------------------|-------------------------0---1---|
E|-2-------2---------0-2---0---2---|-0-------0---0-------0-----------|
   1 e + a 2 e + a 3 e + a 4 e + a   1 e + a 2 e + a 3 e + a 4 e + a 

                                                     |-l.r.-|
G|---------------------------------|---------------------------------|
D|---------------------------------|-----------------------------2---|
A|-2-------2-----2---2-2-------0---|-2-------2-----------------------|
E|---------------------------------|---------------0-0-------0-------|
   1 e + a 2 e + a 3 e + a 4 e + a   1 e + a 2 e + a 3 e + a 4 e + a

G|---------------------------------|---------------------------------|
D|-------------2-4-----------------|---------------2---2-------------|
A|---------------------------------|-------------------------0---1---|
E|-2-------2---------0-2---0---2---|-0-------0-----------0-----------|
   1 e + a 2 e + a 3 e + a 4 e + a   1 e + a 2 e + a 3 e + a 4 e + a 

                                     ring-------------------|
G|---------------------------------|---------------------------------|
D|---------------------------------|---------------------------------|
A|-2-------2-----2---2-2-------0-1-|-2-----------------------2-2-----|
E|---------------------------------|---------------------------------|
   1 e + a 2 e + a 3 e + a 4 e + a   1 e + a 2 e + a 3 e + a 4 e + a


[CHORUS 2]
G|---------------2---2-------------|---------------------------------|
D|---------------------------------|---------------------------------|
A|-0-------0-----------0-------0-1-|-2-------2-------1---2-----------|
E|---------------------------------|---------------0---------0---1---|
   1 e + a 2 e + a 3 e + a 4 e + a   1 e + a 2 e + a 3 e + a 4 e + a 

G|---------------------------------|---------------------------------|
D|-------------2-4-----------------|---------------------------------|
A|---------------------------------|---------------------------------|
E|-2-------2---------0-2---0---1---|-2-------2-----0-2-------2---4---|
   1 e + a 2 e + a 3 e + a 4 e + a   1 e + a 2 e + a 3 e + a 4 e + a 

G|---------------2---2---------2---|---------------------------------|
D|---------------------------------|-----2---------------2-----------|
A|-0-------0-----------0---0-------|---------------------------------|
E|---------------------------------|-0-------0-----0-0-------0---1---|
   1 e + a 2 e + a 3 e + a 4 e + a   1 e + a 2 e + a 3 e + a 4 e + a 

G|---------------------------------|---------------------------------|
D|---------------------------------|---------------------------------|
A|---------------------------------|---------------2/4~-----/7~------|
E|-2-------2-----2---2-2-------0-1-|-2-------2-----------------------|
   1 e + a 2 e + a 3 e + a 4 e + a   1 e + a 2 e + a 3 e + a 4 e + a


(second time around)

G|---------------2---2-------------|---------------------------------|
D|---------------------------------|---------------------------------|
A|-0-------0-----------0---0---0-1-|-2-------2-----2---2-2-----------|
E|---------------------------------|-------------------------0---1---|
   1 e + a 2 e + a 3 e + a 4 e + a   1 e + a 2 e + a 3 e + a 4 e + a

G|---------------------------------|---------------------------------|
D|-------------2-4-----------------|-------------2-4-----------------|
A|---------------------------------|---------------------------------|
E|-2-------2---------0-2---0---1---|-2-------2---------0-2---2~------|
   1 e + a 2 e + a 3 e + a 4 e + a   1 e + a 2 e + a 3 e + a 4 e + a

G|---------------2---2-------------|---------------------------------|
D|---------------------------------|---------------------2-------3~--|
A|-0-------0-----------0-------0---|-2-------2-----------------------|
E|-------------------------0-------|---------------0-0-------0-------|
   1 e + a 2 e + a 3 e + a 4 e + a   1 e + a 2 e + a 3 e + a 4 e + a

G|---------------------------------|---------------------------------|
D|---------------------------------|---------------------------------|
A|---------------------------------|---------------------------------|
E|-2-------2-----2---0-2-------0-1-|-2-------2-----2---0-2---0-1-2---|
   1 e + a 2 e + a 3 e + a 4 e + a   1 e + a 2 e + a 3 e + a 4 e + a


[BRIDGE]

G|---------------------------------|---------------------------------|
D|-2---2---2---0---0---0-----------|---------------------------------|
A|---------------------------------|---------------------------------|
E|-------------------------2---2---|-2---2---2---2---2---2---2---2/--|
   1 e + a 2 e + a 3 e + a 4 e + a   1 e + a 2 e + a 3 e + a 4 e + a 

G|---------------------------------|---------------------------------|
D|---------------------------------|---------------------------------|
A|-7---7---7---5---5---5-----------|---------------------------------|
E|-------------------------2---2---|-2---2---2---0-1-2---2---2---4-5-|
   1 e + a 2 e + a 3 e + a 4 e + a   1 e + a 2 e + a 3 e + a 4 e + a

G|---------------------------------|---------------------------------|
D|---------------------------------|---------------------------------|
A|-7---7---7---5---5---5-----------|---------------------------------|
E|-------------------------2---2-2-|-2---2---2---0---2---2---2---2---|
   1 e + a 2 e + a 3 e + a 4 e + a   1 e + a 2 e + a 3 e + a 4 e + a 

G|---------------------------------|---------------------------------|
D|---------------------------------|---------------------------------|
A|-4---4---4---4---4---4---4---4---|-4---4---4---4-------------------|
E|---------------------------------|---------------------------------|
   1 e + a 2 e + a 3 e + a 4 e + a   1 e + a 2 e + a 3 e + a 4 e + a 


[FINAL CHORUS]

(synth; 7 measures tacet)

G|-----------------------------------|
D|-----------------------------------|
A|-----------------------------------|
E|----------------/14\-----/9\-------|
   1 e + a 2 e + a 3  e + a 4 e + a

G|---------------2-------------2---|---------------------------------|
D|---------------------------------|---------------------2-----------|
A|-0-------0---------0-0---0-------|---------------------------------|
E|---------------------------------|-0-------0-----0-0-------0---1---|
   1 e + a 2 e + a 3 e + a 4 e + a   1 e + a 2 e + a 3 e + a 4 e + a 

G|---------------------------------|---------------------------------|
D|---------------4-----------------|-------------2-4-----------------|
A|---------------------------------|---------------------------------|
E|-2-------2---------0-2-------0-1-|-2-------2---------0-2---0-1-2---|
   1 e + a 2 e + a 3 e + a 4 e + a   1 e + a 2 e + a 3 e + a 4 e + a

G|---------------2-------------2---|-----4---------------4-----------|
D|---------------------------------|---------------------------------|
A|-0-------0---------0-0---0-------|-2-------2---0-1-2---------------|
E|---------------------------------|-------------------------0---1---|
   1 e + a 2 e + a 3 e + a 4 e + a   1 e + a 2 e + a 3 e + a 4 e + a 

G|---------------------------------|---------------------------------|
D|---------4-----------------------|-----4---------------4-----------|
A|---------------------------------|---------------------------------|
E|-2~------------2---0-2-------0-1-|-2-------2-----0-2-------2---0-1-|
   1 e + a 2 e + a 3 e + a 4 e + a   1 e + a 2 e + a 3 e + a 4 e + a

   let ring-----------------------|
G|---------------------------------|
D|---------------------------------|
A|---------------------------------|
E|-2-------------------------------|
   1 e + a 2 e + a 3 e + a 4 e + a


[OUTRO]
                             l.r.-|
G|-----2-3-4-----------------------|---
D|-------------2-3-4---------------|---
A|-----------2---------2-3-4-------|---
E|-------------------2-------0-----|-2-
   1 e + a 2 e + a 3 e + a 4 e + a



Key
| /  slide up
| \  slide down
| h  hammer-on
| ~  vibrato
| x  Mute note

            
            
Suggest correction
Creating personal tab
Creating personal tab
You can edit any tab online and save it as your Personal.

You can edit, replace or remove any tab part or add personal notes – all changes will be seen only by you.

Personal tabs can be accessed anytime from any device, even offline.
Learn more »
Give kudos to tab author, rate the tab!
1 2 3 4 5
comments
print report bad tab
guest
You may want to rate the tab now too:
select rating
Wanna post a correction for this tab? Suggest correction