Oops, an error
Loading. Please wait.

Blue Ink tab

31 views 1 this week
no commentswrite comment
1 2 3 4 5
3 more votes to show rating
add to favorites
×
Save as Personal and add changes to this tab that will be seen only by you. Learn more ›
×
You can save this tab as Personal to edit and correct it or add notes. All changes will be seen only by you. Learn more »
launch autoscroll
font size
0
reset
how to read this tab
guitar tuner
edit
Autoscroll
slow
fast
+/-
esc
set tempo
stop
[Verse]
e|----0------0----------0-----------| I'm falling off the barstool mama
B|----3------3----------3-----------| Where sunlight moves like sadness across the room
G|----2------2----------2-----------|
D|-0-0--------0------0-------0h2 0--| Oh my sweet mama
A|-------0h3-----3--2-----0h1-------| If you could only see me now
E|----------------------------------| Drunk as a skunk falling out of this rundown lacy gown

[Chorus]
e|---0-----0-----0-----0--|---------| This blue ink
B|---3-----3-----3-----3--|---------| This blue ink
G|---0-----0-----0-----0--|---------| This blue ink across the page I
D|-3-3---2-2-----0-----0--|----0h3--| write to you
A|-------------3-3---2-2--|-2h3-----|
E|------------------------|---------|

[Verse]
e|----0------0----------0-----------| I'm sitting in these thorny cowboy boots and scabby
B|----3------3----------3-----------| knees
G|----2------2----------2-----------| Wondering why I left you mama just to do as I
D|--0-0--------0------0-------0h2 0-| please 
A|-------0h3-----3--2-----0h1-------| No hat has a brim wide enough to block out the blazing
E|----------------------------------| sun
                                        I met the devil on the road but I had no legs to       
                                        run 

[Chorus]
e|---0-----0-----0-----0--|---------| (omit last measure before entering bridge)
B|---3-----3-----3-----3--|---------| 
G|---0-----0-----0-----0--|---------| This blue ink
D|-3-3---2-2-----0-----0--|----0h3--| This blue ink
A|-------------3-3---2-2--|-2h3-----| This blue ink across the page I
E|------------------------|---------| write to you

[Bridge]
e|-0--0-0--0-0--0--|  (2x)
B|-3--3-3--3-3--3--|
G|-2--0-0--0-0--0--|  Silver ran off, two towns ago, I've been, walking alone, I've been walking slow
D|-0--3-2--3-2--0--|  My eyes are dry, from the desert wind, I know I ain't coming home to you
A|-----------3--2--|
e|--------------3--|

[Interlude]
e|------------------------1-|
B|------------------------3-|
G|------------------------2-|
D|----0----0----0h3p0-0---0-|
A|-2h3--2h3--2h3-----3------|
e|--------------------------|

[Conclusion]
e|-1--|-0--------------|-0--|-3-------------------| (Play 2x without lyrics)
B|-3--|-1--------------|-1--|-0-------------------| (Chords only for lyrics)
G|-2--|-2----0h2p0---0-|-0--|-0-------------------| I'll take off into the deep blue sky
D|-0--|-2-0h2-----0h2--|-2--|-0-----0h3p0-------0-| When I'm dead and gone and the buzzards fly
A|----|----------------|-3--|-2--2h3------2-2h3---| This blue ink across the page I write to you
e|----|----------------|----|-3-------------------| Mama if you love me you're the only one who do

[Outro]
e|------------------------1-|
B|------------------------3-|
G|------------------------2-|
D|----0----0----0h3p0-0---0-|
A|-2h3--2h3--2h3-----3------|
e|--------------------------|


************************************

| h  Hammer-on
| p  Pull-off 

************************************
Suggest correction
Creating personal tab
Creating personal tab
You can edit any tab online and save it as your Personal.

You can edit, replace or remove any tab part or add personal notes – all changes will be seen only by you.

Personal tabs can be accessed anytime from any device, even offline.
Learn more »
Give kudos to tab author, rate the tab!
1 2 3 4 5
comments
print report bad tab
guest
You may want to rate the tab now too:
select rating
Wanna post a correction for this tab? Suggest correction