Oops, an error
Loading. Please wait.

Broken tab

409 views 3 this week
no commentswrite comment
1 2 3 4 5
2 more votes to show rating
add to favorites
×
Save as Personal and add changes to this tab that will be seen only by you. Learn more ›
×
You can save this tab as Personal to edit and correct it or add notes. All changes will be seen only by you. Learn more »
launch autoscroll
font size
0
reset
how to read this tab
guitar tuner
edit
Autoscroll
slow
fast
+/-
esc
set tempo
stop

[Intro]

e|-------------------------|---------------------|-------------------------|--------------------|   
B|-------------------------|---------------------|-------------------------|--------------------|
G|-------------------------|---------------------|-------------------------|--------------------|
D|-----0-----0---0---4---0-|---------------------|-----0-----0---0---4---0-|--------------------|
A|--2-----2----------------|-------2-------2---0-|--2-----2----------------|-------2------------|
E|-------------------------|---2-------3---------|-------------------------|---2---------3------| 


[Verse]

e|--------------------------|---------------------|-------------------------|--------------------|   
B|--------------------------|---------------------|-------------------------|--------------------|
G|--------------------------|---------------------|-------------------------|--------------------|
D|-----0-----0---0---4---0--|---------------------|-----0-----0---0---4---0-|--------------------|
A|--2-----2-----------------|-------2-------2---0-|--2-----2----------------|-------2------------|
E|--------------------------|---2-------3---------|-------------------------|---2---------3------| 

You're a little bit damaged, I'm a sucker for that/ Wanna take you in my hands, wanna bring you back


e|--------------------------|---------------------|-------------------------|--------------------|   
B|--------------------------|---------------------|-------------------------|--------------------|
G|--------------------------|---------------------|-------------------------|--------------------|
D|-----0-----0---0---4---0--|---------------------|-----0-----0---0---4---0-|--------------------|
A|--2-----2-----------------|-------2-------2---0-|--2-----2----------------|-------2------------|
E|--------------------------|---2-------3---------|-------------------------|---2---------3------| 

You're a little bit damaged, I'm a sucker for that/ Wanna fill up the spaces, and be everything you lack


Bm                       D            Bm             G
You're a little bit jaded, and you're closing the door
Bm                       D            Bm         G
And all that you felt then, you don't feel it anymore
Bm                        D           Bm               G
I'm the picture that's faded, I'm the love you don't trust
Bm                              D              Bm              G
Take the girl out from under glass and she'll always want too much


[Chorus]

e|-------------------|
B|-------------------|
G|-------------------|
D|-------------------|
A|--2---4---5---4----|
E|-------------------|


D Bm A  G           D  Bm A G
I know, You're just broken
D Bm A  G           D  Bm A G           D  Bm A G
I know, You're just broken, you're just broken



Bm                        D        Bm             G
You're a little bit damaged, I'm a sucker for that
Bm                         D     Bm         G
So in the moment I lost you, I wanted you back
Bm                          D                Bm          G
But that's a feeling that's fading, and I'm closing the door
Bm                   D            Bm          G
And all that I felt then, I don't feel it anymore


[Chorus]

e|-------------------|
B|-------------------|
G|-------------------|
D|-------------------|
A|--2---4---5---4----|
E|-------------------|


D Bm A  G           D  Bm A G
I know, You're just broken
D Bm A  G           D  Bm A G           D  Bm A G
I know, You're just broken, you're just broken

G           D  Bm A G           D  Bm A G
You're just broken, you're just broken
G           D  Bm A G           D  Bm A G
You're just broken, you're just broken

            
            
Suggest correction
Creating personal tab
Creating personal tab
You can edit any tab online and save it as your Personal.

You can edit, replace or remove any tab part or add personal notes – all changes will be seen only by you.

Personal tabs can be accessed anytime from any device, even offline.
Learn more »
Give kudos to tab author, rate the tab!
1 2 3 4 5
comments
print report bad tab
guest
You may want to rate the tab now too:
select rating
Wanna post a correction for this tab? Suggest correction