Oops, an error
Loading. Please wait.

Kokonaan Sun Chords

34 views 6 this week
no commentswrite comment
1 2 3 4 5
3 more votes to show rating
add to favorites
launch autoscroll
font size
0
reset
transpose
0
reset
simplify chords
display chords
guitar tuner
Autoscroll
slow
fast
+/-
esc
set tempo
stop
Help us to improve Ultimate-Guitar.com Take our survey!
×
Author
Difficulty
intermediate
About this tab version
Includes intro and outro tabs. Was this info helpful? Yes No
[Intro]

  Am
e|-0-0-0-0-----|-------------|-------------|-------------|
B|---------3-1-|-0-----------|-0-0-0-0-1-0-|-------------|
G|-------------|-------------|-------------|-2-----------| x2
D|-------------|-------------|-------------|-------------|
A|-------------|-------------|-------------|-------------|
E|-------------|-------------|-------------|-------------|


[Verse 1]

Am
Kokonaan kuulun mä kokonaan sulle
G
Jos lähdet pois mitä tapahtuis mulle
F
Rakastan aamuja
                Dm7
Rakastan aamuja huonojakin
Am
Välillä nyrjähdin sotkuun ja takkuun
G
Kaaduin ja horjuin, no kaikkeenhan tottuu
F
Pidä mua kädestä
                 Dm7
Pidä mua kädestä lujempaa kii


[Bridge]

F
Kadottaa et sä saa tätä iloo ylevää
Am                              G
Elämää rehevää joka vetää mukaansa
    E
Nyt sinuakin
F                                      Am
  Unohtaa et sä saa tätä hetkee nyt me ei
                                  G
Tiedetä tulevaa sehän kysyy mukaansa
    E
Nyt minuakin


[Chorus]

C                      Am
  Tyttö nauruun purskahtaa
                           F
Se kaikkeen saa mut uskomaan
         G        Em7   Am
Vielä suutelen sua   pitkään
C                     Am
  Täynnä puut on omenaa
                  F
Elokuu jaksaa sataa
         G        Em7  (Am)
Enkä piittaa siitä   yhtään

  Am
e|-0-0-0-0-----|-------------|-------------|-------------|
B|---------3-1-|-0-----------|-0-0-0-0-1-0-|-------------|
G|-------------|-------------|-------------|-2-----------|
D|-------------|-------------|-------------|-------------|
A|-------------|-------------|-------------|-------------|
E|-------------|-------------|-------------|-------------|


[Verse 2]

Am
Maatuisin makuulle murtuisin kyllä
    G
Jos tulisit ja lähtöäs pitäisit yllä
F
Rakasta minua
              Dm7
Rakasta minua huononakin
Am
Riittääkö sulle tää hetki ja kerta
G
Kestätkö mun mustanpuhuvaa verta
    F
Oot parasta aina
                    Dm7
En rakasta aina mut rakastan nyt


[Bridge]

F
Kadottaa et sä saa tätä iloo ylevää
Am                              G
Elämää rehevää joka vetää mukaansa
    E
Nyt sinuakin
F                                      Am
  Unohtaa et sä saa tätä hetkee nyt me ei
                                  G
Tiedetä tulevaa sehän kysyy mukaansa
    E
Nyt minuakin


[Chorus]

C                      Am
  Tyttö nauruun purskahtaa
                           F
Se kaikkeen saa mut uskomaan
         G        Em7   Am
Vielä suutelen sua   pitkään
C                     Am
  Täynnä puut on omenaa
                  F
Elokuu jaksaa sataa
         G        Em7   Am 
Enkä piittaa siitä   yhtään
C                      Am
  Tyttö nauruun purskahtaa
                           F
Se kaikkeen saa mut uskomaan
         G        Em7   Am
Vielä suutelen sua   pitkään
C                     Am
  Täynnä puut on omenaa
                  F
Elokuu jaksaa sataa
         G        Em7  (Am) 
Enkä piittaa siitä   yhtään

[Outro]

  Am
e|-0-0-0-0-----|-------------|-------------|-------------|
B|---------3-1-|-0-----------|-0-0-0-0-1-0-|-------------|
G|-------------|-------------|-------------|-2-----------| x2
D|-------------|-------------|-------------|-------------|
A|-------------|-------------|-------------|-------------|
E|-------------|-------------|-------------|-------------|
Suggest correction
Give kudos to tab author, rate the tab!
1 2 3 4 5
comments
print report bad tab
guest
You may want to rate the tab now too:
select rating
Wanna post a correction for this tab? Suggest correction