Oops, an error
Loading. Please wait.

Myrsky Chords

97 views 1 this week
no commentswrite comment
1 2 3 4 5
3 more votes to show rating
add to favorites
launch autoscroll
font size
0
reset
transpose
0
reset
simplify chords
display chords
guitar tuner
Autoscroll
slow
fast
+/-
esc
set tempo
stop
Author
Difficulty
intermediate
About this tab version
Tabs for intro, solo, instrumental and outro. Tempo 195. Was this info helpful? Yes No
Strumming
There is no strumming pattern for this song yet. and get +5 IQ
[Intro]
   Am                     G                      F                      Dm7
e|-0--------|-5----7----|-3--------|---1--0----|-0---------|----------|----------|-0---3----|
B|----------|-----------|----------|---------3-|-----------|------0---|-1---3----|----------|
G|----------|-----------|----------|-----------|------2----|----------|----------|----------|
D|----------|-----------|----------|-----------|-----------|----------|----------|----------| x2
A|----------|-----------|----------|-----------|-----------|----------|----------|----------|
E|----------|-----------|----------|-----------|-----------|----------|----------|----------|


[Verse 1]
Am                G          F
Tänään myrsky kiertää meidän pihaa
Dm7
Vie kaiken mennessään
Am            G
Repii meren irti
     F     Dm7
Riekaleita jäljelle enää jää
G                    Am
Myrskyn silmä tummuu tunti tunnilta
G
Minä huudan vailla suuntaa

[Chorus]
Am                  C
Oo - oo - oo - oo - o
C
Mä sinua odotan
Am                  C
Oo - oo - oo - oo - o
C
Oot mulle ainoa
Am                      G
Oo - oo - oo - oo - o - oo


[Solo]
   Am                     G                      F                     Dm7
e|-0--------|-5----7----|-3--------|---1--0----|-0---------|----------|----------|-0---3----|
B|----------|-----------|----------|---------3-|-----------|------0---|-1---3----|----------|
G|----------|-----------|----------|-----------|------2----|----------|----------|----------|
D|----------|-----------|----------|-----------|-----------|----------|----------|----------|
A|----------|-----------|----------|-----------|-----------|----------|----------|----------|
E|----------|-----------|----------|-----------|-----------|----------|----------|----------|


[Verse 2]
Am             G      F
Enää en voi jättää elämättä
Dm7
Päästää sua käsistä
Am          G
Vetää äkkisyvään
    F      Dm7
Kysymättä, nyt kiinni pidetään
G                    Am
Myrskyn silmä tummuu tunti tunnilta
G
Minä huudan vailla suuntaa


[Chorus]
Am                  C
Oo - oo - oo - oo - o
C
Mä sinua odotan
Am                  C
Oo - oo - oo - oo - o
C
Oot mulle ainoa
Am                  C
Oo - oo - oo - oo - o
C
Mä sinua odotan
Am                  C
Oo - oo - oo - oo - o
C
Oot mulle ainoa
Am                      G
Oo - oo - oo - oo - o - oo


[Instrumental]
   C                                   Em7
e|-------3-------3-|-------3-------3-|-------3-------3-|-------3-------3-|
B|-2---2---2---2---|-2---2---2---2---|-3---3---3---3---|-3---3---3---3---|
G|---0-------0-----|---0-------0-----|---0-------0-----|---0-------0-----|
D|-----------------|-----------------|-----------------|-----------------|
A|-----------------|-----------------|-----------------|-----------------|
E|-----------------|-----------------|-----------------|-----------------|

   Dm7                                 G
e|-------3-------3-|-------3-------3-|-------3-------3-|-------3-------3-|
B|-2---2---2---2---|-2---2---2---2---|-3---3---3---3---|-3---3---3---3---|
G|---0-------0-----|---0-------0-----|---0-------0-----|---0-------0-----|
D|-----------------|-----------------|-----------------|-----------------|
A|-----------------|-----------------|-----------------|-----------------|
E|-----------------|-----------------|-----------------|-----------------|


[Verse 3]
C                          Em7
Tummat pilvet väistyy ja kauas pakenee
            Dm7                    G
Mä näistä öistä tahdon viedä sinut päivän kirkkauteen
    C                 Em7
Sun hymyilevät silmäs saa taas toivomaan
          Dm7                    G
Ja pisamat sun kasvoillasi mulle hehkuu valoaan
G
Hehkuu valoaan


[Chorus]
Am                  C
Oo - oo - oo - oo - o

Mä sinua odotan
Am                  C
Oo - oo - oo - oo - o

Oot mulle ainoa
Am                  C
Oo - oo - oo - oo - o

Mä sinua odotan
Am                  C
Oo - oo - oo - oo - o

Oot mulle ainoa
Am                      G
Oo - oo - oo - oo - o - oo


[Outro]
   Am                     G                      F                      Dm7
e|-0--------|-5----7----|-3--------|---1--0----|-0---------|----------|----------|-0---3----|
B|----------|-----------|----------|---------3-|-----------|------0---|-1---3----|----------|
G|----------|-----------|----------|-----------|------2----|----------|----------|----------|
D|----------|-----------|----------|-----------|-----------|----------|----------|----------|
A|----------|-----------|----------|-----------|-----------|----------|----------|----------|
E|----------|-----------|----------|-----------|-----------|----------|----------|----------|

   Am                     G                      F                      Dm7                   Am
e|-0--------|-5----7----|-3--------|---1--0----|-0---------|----------|----------|-0---3----|-5--------|
B|----------|-----------|----------|---------3-|-----------|------0---|-1---3----|----------|----------|
G|----------|-----------|----------|-----------|------2----|----------|----------|----------|----------|
D|----------|-----------|----------|-----------|-----------|----------|----------|----------|----------|
A|----------|-----------|----------|-----------|-----------|----------|----------|----------|----------|
E|----------|-----------|----------|-----------|-----------|----------|----------|----------|----------|
Suggest correction
Give kudos to tab author, rate the tab!
1 2 3 4 5
comments
print report bad tab
guest
You may want to rate the tab now too:
select rating
Wanna post a correction for this tab? Suggest correction