Oops, an error
Loading. Please wait.

Polte Chords

version 2
version 2

Whole song

265 views 18 this week
no commentswrite comment
1 2 3 4 5
3 more votes to show rating
add to favorites
launch autoscroll
font size
0
reset
transpose
0
reset
simplify chords
display chords
guitar tuner
Autoscroll
slow
fast
+/-
esc
set tempo
stop
Help us to improve Ultimate-Guitar.com Take our survey!
×
Author
Difficulty
novice
About this tab version
Added tabs and corrected chords. Was this info helpful? Yes No
[Intro]

  Am              F              Am              Em7
e|---------------|--------------|---------------|--------------|
B|----1--0-1-3---|--------------|----1--0-1-3---|-1-0----------|
G|-------------0-|--------------|-------------0-|-----2-0------|
D|-2-------------|--------------|-2-------------|-----------0--|
A|---------------|--------------|---------------|--------------|
E|---------------|--------------|---------------|--------------|


[Verse 1]

Am
Kuuntelee
                          G
Mua tähtitaivas täällä kuuntelee
                            F
Kun huudan ääneen miksi pois ei mee
Dm7         Em7        Am   Em7
    Hurja polte pohjaton


[Verse 2]

Am
Haalenee
                           G
Vaikk' vuosi vuodelta vain haalenee
                      F
Se rauta rintaa silti raatelee
Dm7       Em7        Am
    Yksinäinen yöni on


[Chorus]

C
    Kiihkeyttä kuumaa
Em7
    Hulluutta huumaa
Dm7                  G
    Sait mut tuntemaan
C   
    Katso mua pitkään
Em7
    Miksi sytytitkään
Dm7                G
    Roihun riehumaan
               (Am)
Silloin aikanaan

  Am              F              Am              Em7
e|---------------|--------------|---------------|--------------|
B|----1--0-1-3---|--------------|----1--0-1-3---|-1-0----------|
G|-------------0-|--------------|-------------0-|-----2-0------|
D|-2-------------|--------------|-2-------------|-----------0--|
A|---------------|--------------|---------------|--------------|
E|---------------|--------------|---------------|--------------|


[Verse 3]

Am
Vieläkin
                       G
Kai siitä haaveilen mä vieläkin
                       F
Kun tässä istun silmin polttavin
Dm7        Em7            Am
    Hehkuvan  sun tahtoisin


[Chorus]

C
    Kiihkeyttä kuumaa
Em7
    Hulluutta huumaa
Dm7                  G
    Sait mut tuntemaan
C   
    Katso mua pitkään
Em7
    Miksi sytytitkään
Dm7                G
    Roihun riehumaan

   Dm
Silmissäs on hetken verran
Bb
Polte tuo sen tunsin kerran
F                       Am
Jos mä jään vieläkö sen nään
Dm
Uskonko ja uskallanko
Bb
Tahdonko ja tarkoitanko
F                      Am
Näänkö sen muuta toivo en


[Instrumental]
Dm  Bb  F  C
Dm  Bb  F  G


[Chorus]

C
    Kiihkeyttä kuumaa
Em7
    Hulluutta huumaa
Dm7                  G
    Sait mut tuntemaan
C   
    Katso mua pitkään
Em7
    Miksi sytytitkään
Dm7                G
    Roihun riehumaan
C
    Kiihkeyttä kuumaa
Em7
    Hulluutta huumaa
Dm7                  G
    Sait mut tuntemaan
C   
    Katso mua pitkään
Em7
    Miksi sytytitkään
Dm7                G
    Roihun riehumaan
               Am
Silloin aikanaan
Suggest correction
Give kudos to tab author, rate the tab!
1 2 3 4 5
comments
print report bad tab
guest
You may want to rate the tab now too:
select rating
Wanna post a correction for this tab? Suggest correction