Oops, an error
Loading. Please wait.

Syyskuun Kyy chords

version 2
version 2

Whole song

  • Includes tabs for intro, interlude and outro. Corrected chords.
70 views 3 this week
no commentswrite comment
1 2 3 4 5
3 more votes to show rating
add to favorites
×
Save as Personal and add changes to this tab that will be seen only by you. Learn more ›
×
You can save this tab as Personal to edit and correct it or add notes. All changes will be seen only by you. Learn more »
launch autoscroll
font size
0
reset
transpose
0
reset
display chords
guitar tuner
edit
Autoscroll
slow
fast
+/-
esc
set tempo
stop
Author
Difficulty
About this tab version
Includes tabs for intro, interlude and outro. Corrected chords. Was this info helpful? Yes No
Strumming
There is no strumming pattern for this song yet. and get +5 IQ
Voit soittaa tabit ylempää tai alempaa.
Tempo 172, key: E minor / sävellaji e-molli

[Intro]
(Higher octave)
   Em             D              Am             Em
e|-------12-----|-------10-----|--------------|--------------|
B|-7--8---------|-5--7---------|-------7------|--------------|
G|--------------|--------------|-4--5---------|--------------|  (x2)
D|--------------|--------------|--------------|--------------|
A|--------------|--------------|--------------|--------------|
E|--------------|--------------|--------------|--------------|

(Lower octave)
   Em             D              Am             Em
e|-------0------|--------------|--------------|--------------|
B|--------------|-------3------|--------------|--------------|
G|--------------|--------------|-------4------|--------------|  (x2)
D|-4--5---------|-2--4---------|--------------|--------------|
A|--------------|--------------|-2--3---------|--------------|
E|--------------|--------------|--------------|--------------|


[Verse 1]
    Em                 D
Oli huumaava aamu olin kalpee ku haamu
       Am                      Em
Hennon suudelman ku sinulta mä sain
                          D
Olin ku syyskuun kyy joka elämän hyytämänä 
Am                  Em
Kalliolla makoili vain
                                 D
Jotain sujautti taskuun, juoksin auringon laskuun
     Am                    Em
syrjäsilmällä ne mua vilkuilee
       Em                  D
Kaikki syyskuun kyyt jotka pimeänhetkinäkin
Am                          Bm
Paikalleen ei jää vaan pakenee


[Chorus]
Em    C   D        G
Kietoutuu kiinni minuun
Em   C   D          Bm
Antaudun silloin sinuun
Em    C   D        G
Piiloutuu tähtisäihkyyn
Em       C    D        Bm   D
Syyskuun kyyt sinne häipyy


[Interlude]
(Higher octave)
   Em             D              Am             Em
e|-------12-----|-------10-----|--------------|--------------|
B|-7--8---------|-5--7---------|-------7------|--------------|
G|--------------|--------------|-4--5---------|--------------|  (x2)
D|--------------|--------------|--------------|--------------|
A|--------------|--------------|--------------|--------------|
E|--------------|--------------|--------------|--------------|

(Lower octave)
   Em             D              Am             Em
e|-------0------|--------------|--------------|--------------|
B|--------------|-------3------|--------------|--------------|
G|--------------|--------------|-------4------|--------------|  (x2)
D|-4--5---------|-2--4---------|--------------|--------------|
A|--------------|--------------|-2--3---------|--------------|
E|--------------|--------------|--------------|--------------|


[Verse 2]
        Em                      D
Viestin salaisen laittaa en voi elämää vaihtaa 
      Am                    Em
Kylmänkauniina sut edessäni näin
                              D
Sä oot kuin syyskuun kyy joka salaman saattamana 
Am                     Em
Sisään minun sydämeeni jäi
                           D
Öisten kattojen alla katseita kaikkialla
       Am                    Em
Nyt mä arvaan mihin sinä mua viet
                              D
Mä oon se syyskuun kyy, jonka taivas on kirkastanut
Am                         Bm
Ja sä tiedät suunnan tämän tien


[Chorus]
Em    C   D        G
Kietoutuu kiinni minuun
Em   C   D          Bm
Antaudun silloin sinuun
Em    C   D        G
Piiloutuu tähtisäihkyyn
Em       C    D        Bm
Syyskuun kyyt sinne häipyy


[Bridge]
C
Kohmeessa tulta kaipaan
Am
  Raapivat tähdet taivaan
Em       D
Kohtalon soihtuja
C
Pakoon en tahdo päästä
Am
  Ei kohtalokaan säästä
Em        D         Bm
Rakkautta roihuvaa


[Chorus]
Em    C   D        G
Kietoutuu kiinni minuun
Em   C   D          Bm
Antaudun silloin sinuun
Em    C   D        G
Piiloutuu tähtisäihkyyn
Em       C    D        Bm  D
Syyskuun kyyt sinne häipyy


[Outro]
(Higher octave)
   Em             D              Am             Em
e|-------12-----|-------10-----|--------------|--------------|
B|-7--8---------|-5--7---------|-------7------|--------------|
G|--------------|--------------|-4--5---------|--------------|  (x2)
D|--------------|--------------|--------------|--------------|
A|--------------|--------------|--------------|--------------|
E|--------------|--------------|--------------|--------------|

(Lower octave)
   Em             D              Am             Em
e|-------0------|--------------|--------------|--------------|
B|--------------|-------3------|--------------|--------------|
G|--------------|--------------|-------4------|--------------|  (x2)
D|-4--5---------|-2--4---------|--------------|--------------|
A|--------------|--------------|-2--3---------|--------------|
E|--------------|--------------|--------------|--------------|

            
            
Suggest correction
Creating personal tab
Creating personal tab
You can edit any tab online and save it as your Personal.

You can edit, replace or remove any tab part or add personal notes – all changes will be seen only by you.

Personal tabs can be accessed anytime from any device, even offline.
Learn more »
Give kudos to tab author, rate the tab!
1 2 3 4 5
comments
print report bad tab
guest
You may want to rate the tab now too:
select rating
Wanna post a correction for this tab? Suggest correction