Oops, an error
Loading. Please wait.

Juomaripoika Chords

61 views 3 this week
no commentswrite comment
1 2 3 4 5
3 more votes to show rating
add to favorites
launch autoscroll
font size
0
reset
transpose
0
reset
display chords
guitar tuner
Autoscroll
slow
fast
+/-
esc
set tempo
stop
Help us to improve Ultimate-Guitar.com Take our survey!
×
Author
Difficulty
novice
[Intro]

  Am
e|------------------|--------------------|--------------------|--------|
B|-----1------------|-----1--3-1---------|-----1--3-1---------|--------|
G|-2-------2---0--2-|--2---------2--0--2-|--2---------2--0--2-|-----0--|
D|------------------|--------------------|--------------------|--------|
A|------------------|--------------------|--------------------|--------|
E|------------------|--------------------|--------------------|--------|

  Am
e|------------------|--------------------|--------------------|
B|-----1------------|-----1--3-1---------|-----1--3-1---------|
G|-2-------2---0--2-|--2---------2--0--2-|--2---------2--0--2-|
D|------------------|--------------------|--------------------|
A|------------------|--------------------|--------------------|
E|------------------|--------------------|--------------------|


[Verse 1]

Am            Em                Dm       Am
Juomaripoijan hevonen se seisoo joka kapakalla
Am            Em                Dm       Am
Juomaripoijan hevonen se seisoo joka kapakalla
Am                 Em           Dm         Am
Mitä teköö hulivilihummeripoika heilan napakalla
Am                 Em           Dm         Am
Mitä teköö hulivilihummeripoika heilan napakalla


[Chorus]

      Dm               Am
Illan tullen juomaripoika
           Em                Am
Silittelöö seinii, silittelöö  seinii
      Dm               Am
Illan tullen juomaripoika
           Em                 Am
Silittelöö seinii, silittelöö seinii


[Verse 2]

Am              Em                 Dm        Am
Rikkahan pellon pientarella kasvaa punajuuri nauris
Am              Em                 Dm        Am
Rikkahan pellon pientarella kasvaa punajuuri nauris
Am                   Em             Dm              Am
Sehän niitä rikkahia harmittaa, kun köyhän lapsi on kaunis
Am                   Em             Dm              Am
Sehän niitä rikkahia harmittaa, kun köyhän lapsi on kaunis


[Chorus]

      Dm               Am
Illan tullen juomaripoika
           Em                Am
Silittelöö seinii, silittelöö  seinii
      Dm               Am
Illan tullen juomaripoika
           Em                 Am
Silittelöö seinii, silittelöö seinii


[Solo]

  Am               Em              Dm             Am
e|-------5-----10-|--7---5-----10-|--7---5-----5-|--------------|
B|-5--8----8-5----|----5---8-5----|----5---8-5---|--8-5-8-5-8---|
G|----------------|---------------|--------------|--------------|
D|----------------|---------------|--------------|--------------|
A|----------------|---------------|--------------|--------------|
E|----------------|---------------|--------------|--------------|

  Am               Em             Dm          Am
e|-------5-----10-|--7---5-----5-|----5--5-7-|--7-10--|
B|-5--8----8-5----|----5---8-5---|--5--------|--------|
G|----------------|--------------|-----------|--------|
D|----------------|--------------|-----------|--------|
A|----------------|--------------|-----------|--------|
E|----------------|--------------|-----------|--------|


[Chorus]

      Dm               Am
Illan tullen juomaripoika
           Em                Am
Silittelöö seinii, silittelöö  seinii
      Dm               Am
Illan tullen juomaripoika
           Em                 Am
Silittelöö seinii, silittelöö seinii
Am
Silittelöö seinii
Suggest correction
Give kudos to tab author, rate the tab!
1 2 3 4 5
comments
print report bad tab
guest
You may want to rate the tab now too:
select rating
Wanna post a correction for this tab? Suggest correction