Oops, an error
Loading. Please wait.

Komia On Aina Komia Chords

28 views 3 this week
no commentswrite comment
1 2 3 4 5
2 more votes to show rating
add to favorites
launch autoscroll
font size
0
reset
transpose
0
reset
simplify chords
display chords
guitar tuner
Autoscroll
slow
fast
+/-
esc
set tempo
stop
Help us to improve Ultimate-Guitar.com Take our survey!
×
Author
Difficulty
intermediate
[Intro]
Em                  G                    Am                G
Isä tahtoi rikasta, äiti toivoi rakasta, minä yksin komiaa, kaikista parasta

[Solo]
   Em             Am             C              B7
e|-3----0-----0-|-3----0-----0-|-3----0-----0-|-2------------|
B|----3----0----|----3----0----|----3----0----|--------------|
G|--------------|--------------|--------------|------2b--0---|
D|--------------|--------------|--------------|------------4-|   x2
A|--------------|--------------|--------------|--------------|
E|--------------|--------------|--------------|--------------|

[Verse 1]
Em                           Am
Oi, teitä pappa ja mamma kun taisitte olla vastaan
     C                     B7
Niin hyvin kerta tiesitte, ero ei meille passaa
      Em                                Am
Mutta talavella maa on valakonen, se on syksyn tullen musta
C                          B7
Tulevan vuoren turvaksi mä uutta kultaa rustaan

[Chorus]
Em                        G
Isä tahtoi rikasta, mutta minä yksin komiaa
Am                         G
Äiti toivoi rakasta, mutta komia on aina komia
Em                        G
Isä tahtoi rikasta, mutta minä yksin komiaa
Am                         G
Äiti toivoi rakasta, mutta komia on aina komia komia

[Solo]
   Em             Am             C              B7
e|-3----0-----0-|-3----0-----0-|-3----0-----0-|-2------------|
B|----3----0----|----3----0----|----3----0----|--------------|
G|--------------|--------------|--------------|------2b--0---|
D|--------------|--------------|--------------|------------4-|
A|--------------|--------------|--------------|--------------|
E|--------------|--------------|--------------|--------------|

[Verse 2]
Em                                 Am
Köyhästä saa kyllä rikkahan, mutta rumasta ei saa koriaa
C                             B7
Rikkahasta saa rakkahan, vaan onko sillä vartta komiaa
Em                        Am
Kilahtaa se rautakin, kun vasaralla takoo
C                           B7
Minkähänlaasen uuren kullan vierellensä hakoo

[Chorus]
Em                        G
Isä tahtoi rikasta, mutta minä yksin komiaa
Am                         G
Äiti toivoi rakasta, mutta komia on aina komia
Em                        G
Isä tahtoi rikasta, mutta minä yksin komiaa
Am                         G
Äiti toivoi rakasta, mutta komia on aina komia, komia on aina komia

[Verse 3]
Em               G            D/A
   Rikas köyhtyy, rakas laihtuu
            C/G
Komia pysyy,   se vaan komistuu
Em               G            D/A
   Rikas köyhtyy, rakas laihtuu
            C/G                 C
Komia pysyy,   se vaan komistuu, se vaan komistuu

[Chorus]
Em                        G
Isä tahtoi rikasta, mutta minä yksin komiaa
Am                         G
Äiti toivoi rakasta, mutta komia on aina komia
Em                        G
Isä tahtoi rikasta, mutta minä yksin komiaa
Am                         G
Äiti toivoi rakasta, mutta komia on aina komia
Em                  G
Isä tahtoi rikasta, äiti toivoi rakasta
Am                G
Minä yksin komiaa, kaikista parasta

[Outro]
   Em             Am             C              B7
e|-3----0-----0-|-3----0-----0-|-3----0-----0-|-2------------|
B|----3----0----|----3----0----|----3----0----|--------------|
G|--------------|--------------|--------------|------2b--0---| (fade out)
D|--------------|--------------|--------------|------------4-|
A|--------------|--------------|--------------|--------------|
E|--------------|--------------|--------------|--------------|
Suggest correction
Give kudos to tab author, rate the tab!
1 2 3 4 5
comments
print report bad tab
guest
You may want to rate the tab now too:
select rating
Wanna post a correction for this tab? Suggest correction