Oops, an error
Loading. Please wait.

Maailma On Renki chords

496 views 12 this week
no commentswrite comment
1 2 3 4 5
x 4
add to favorites
×
Save as Personal and add changes to this tab that will be seen only by you. Learn more ›
×
You can save this tab as Personal to edit and correct it or add notes. All changes will be seen only by you. Learn more »
launch autoscroll
font size
0
reset
transpose
0
reset
display chords
guitar tuner
edit
Autoscroll
slow
fast
+/-
esc
set tempo
stop
Author
Difficulty
intermediate
Strumming
There is no strumming pattern for this song yet. and get +5 IQ
[Intro]
Am   G   Em   D   x2

[Verse 1]
Am                   G                 Em         D
   Mua rikkaan talon poijaksi luullaan,  rikkaaksi joka suulla
Am           G                Em             D
   Mut mähän oon pelkkä renki,  mut mulla on komian pojan henki

Am   G   Em   D

Am              G                 Em      D
   Tie on kapee peltoihin nähären,  mutta siitä mä lähären
Am            G                Em            D
   Kun tyttö, sua tuuti lullaa,  onni ei voi muuta ku tulla

[Chorus]
Am             G      Em             F        G  Am
   Tässä oikea käteni,  tässä on mun hellä syrämeni
       G                Em  F  G
Ne on ainoot mitä multa saat
Am             G      Em             F        G  Am
   Tässä oikea käteni,  tässä on mun hellä syrämeni
       G                 Em  F
Ne on ainoot mitä mul on antaa

Am   G   Em   D

[Verse 2]
Am                   G        Em      D
   Kun köyhä rikasta rakastaa,  se on näköjään pahasta
Am             G              Em        D
   Ja sukus ei paasaa muusta kuin rahasta
Am                 G        Em        D
   Ja mua köyhäksi luullaan,  köyhäksi joka suulla
Am              G                  Em         D
   Mut mulla on komian pojan henki,  ja mulle maailma on renki

[Chorus]
Am             G      Em             F        G  Am
   Tässä oikea käteni,  tässä on mun hellä syrämeni
       G                Em  F  G
Ne on ainoot mitä multa saat
Am             G      Em             F        G  Am
   Tässä oikea käteni,  tässä on mun hellä syrämeni
       G                 Em  F
Ne on ainoot mitä mul on antaa

[Solo]
   1 + 2 + 3 + 4 +   1 + 2 + 3 + 4 +   1 + 2 + 3 + 4 +   1 + 2 + 3 + 4 +   1 + 2 + 3 + 4 +
   Am                G                 Em                D                 Am
e|-----------------|-----------------|-----------------|-0---------------|-----------------|
B|-----------------|-----------------|-0-----------0---|---3---1---3-----|-----------------|
G|------------2----|-0-----------0---|-----------2-----|-----------------|-------------2---|
D|------2----------|-------2---------|-----------------|-----------------|-------2---------|
A|-0---------------|-----------------|-----------------|-----------------|-0---------------|
E|-----------------|-----------------|-----------------|-----------------|-----------------|

   1 + 2 + 3 + 4 +   1 + 2 + 3 + 4 +   1 + 2 + 3 + 4 +   1 + 2 + 3 + 4 +
   G                 Em                D
e|-----------------|-----------------|-----------------|-----------------|
B|-----------------|-0---------------|---0-------0-----|---0-------0-----|
G|-0-----------0---|-----------------|-----2-0-2---2-0-|-----2-0-2---2-0-|
D|-------2---------|-----------------|-----------------|-----------------|
A|-----------------|-----------------|-----------------|-----------------|
E|-----------------|-----------------|-----------------|-----------------|

[Chorus]
Am             F      Em             D          (Bm)
   Tässä oikea käteni,  tässä on mun hellä syrämeni

[Instrumental]
Bm   A   F#m   G   x2

[Chorus]
Bm             A      F#m             G         A Bm
   Tässä oikea käteni,   tässä on mun hellä syrämeni
       A                F#m  G  A
Ne on ainoot mitä multa saat

Bm             A      F#m             G         A Bm
   Tässä oikea käteni,   tässä on mun hellä syrämeni
       A                 F#m G                    Bm
Ne on ainoot mitä mul on antaa, mitä mul on antaa

            
            
Suggest correction
Creating personal tab
Creating personal tab
You can edit any tab online and save it as your Personal.

You can edit, replace or remove any tab part or add personal notes – all changes will be seen only by you.

Personal tabs can be accessed anytime from any device, even offline.
Learn more »
comments
print report bad tab
guest
You may want to rate the tab now too:
select rating
Wanna post a correction for this tab? Suggest correction