Oops, an error
Loading. Please wait.

Pappi Vainaa Live chords

64 views 1 this week
no commentswrite comment
1 2 3 4 5
3 more votes to show rating
add to favorites
×
Save as Personal and add changes to this tab that will be seen only by you. Learn more ›
×
You can save this tab as Personal to edit and correct it or add notes. All changes will be seen only by you. Learn more »
launch autoscroll
font size
0
reset
transpose
0
reset
display chords
guitar tuner
edit
Autoscroll
slow
fast
+/-
esc
set tempo
stop
Author
Difficulty
Strumming
There is no strumming pattern for this song yet. and get +5 IQ
Vaikka kyseessä on liveversio, ainoastaan interlude on täysin livevetoon perustuva, ja muut osat sopivat
yhteen albumiversion kanssa.

[Intro]
Em  C  Em  C   (x2)


[Verse 1]
         Em               C
Siin oli seittemän hirttä poikki 
            Em           C
Ku kotia päin me ajeltiin
            Em                      C
Tuumaaltiin rauhas mut kumpikaan ei puhunu mitään 
     Em              C         Am
Vaan vauhtia hevosiin me laitettiin 
      Em               C
Martinki piti kohralle osua
         Em             C
Se taisi kirkolta tuara ropsua
        Em                C
Mul oli puukko ja sul oli kirvesjoukko
      Em                    C     Am
Sinne tielle se Marttiki jäi vaateriin


[Chorus]
         G        Bm
Mä sanon hei, hei hei
     C
Että onko siinä laitaa
    C
Kun pappikin on vainaa
G        Bm
Joo, joo joo
      C
Ja me tuomiolle tullaan
C
Niin kuin aina


[Interlude]
Em  C  Em  C


[Verse 2]
       Em           C
Täs ny taitaa käyrä niin
                      Em                      C
Ettei me hetken tulla näkemään ja pirä niistä suitsista kii
           Em                 C
Niin ettei hevoset karkaa tai säkin oot vainaa
   Em                  C     Am
Ja kotona et sano sitte sanaakaan


[Chorus]
         G        Bm
Mä sanon hei, hei hei
     C
Että onko siinä laitaa
    C
Kun pappikin on vainaa
G        Bm
Joo, joo joo
      C
Ja me tuomiolle tullaan
C
Niin kuin aina
         G        Bm
Mä sanon hei, hei hei
     C
Että onko siinä laitaa
    C
Kun pappikin on vainaa
G        Bm
Joo, joo joo
      C
Ja me tuomiolle tullaan
C
Niin kuin aina


[Interlude]
Em  C  Cm

   Em                         C                           Em                          C
   ^   ˇ    ^    ˇ   ^   ˇ    ^  ˇ   ^  ˇ   ^  ˇ   ^  ˇ   ^  ˇ   ^  ˇ   ^  ˇ   ^  ˇ   ^  ˇ   ^   ˇ  ^  ˇ
e|-------------------------------------------------------------------------------------------------------|
B|-------------------------------------------------------------------------------------------------------|
G|-13--13---12--12---11--11---10-10--9--8---8--8---7--7---6--6---5--5---4--4---3--3---2--2---3--3---4--4-|
D|-12--12---11--11---10--10---9--9---8--8---7--7---6--6---5--5---4--4---3--3---2--2---1--1---2--2---3--3-|
A|-12--12---11--11---10--10---9--9---8--8---7--7---6--6---5--5---4--4---3--3---2--2---1--1---2--2---3--3-|
E|-------------------------------------------------------------------------------------------------------|
   ^   ˇ    ^   ˇ    ^   ˇ    ^  ˇ   ^  ˇ   ^  ˇ   ^  ˇ   ^  ˇ   ^  ˇ   ^  ˇ   ^  ˇ   ^  ˇ   ^  ˇ   ^  ˇ

          Em                          C                                 Em
   ^  ˇ   ^  ˇ   ^  ˇ   ^  ˇ   ^  ˇ   ^  ˇ   ^   ˇ    ^   ˇ    ^   ˇ    ^   ˇ    ^   ˇ    ^    ^    ^
e|-----------------------------------------------------------------------------------------------------|
B|-----------------------------------------------------------------------------------------------------|
G|-5--5---6--6---7--7---8--8---9--9---10-10--11--11---12--12---13--13---14--14---15--15---14---13---13-|
D|-4--4---5--5---6--6---7--7---8--8---9--9---10--10---11--11---12--12---13--13---14--14---13---12---12-|
A|-4--4---5--5---6--6---7--7---8--8---9--9---10--10---11--11---12--12---13--13---14--14---13---12---12-|
E|-----------------------------------------------------------------------------------------------------|
   ^  ˇ   ^  ˇ   ^  ˇ   ^  ˇ   ^  ˇ   ^  ˇ   ^   ˇ    ^   ˇ    ^   ˇ    ^   ˇ    ^   ˇ    ^    ^    ^

   C                  G      Cm     C
   ^    ^    ^    ^   ^      ^      ^ 
e|-----------------------------------------|
B|-----------------------------------------|
G|-15---13---11---8---11-----11-----11-----|
D|-14---12---10---7---10-----10-----10-----|
A|-14---12---10---7---10-----10-----10-----|
E|-----------------------------------------|
   ^    ^    ^    ^   ^      ^      ^ 


[Chorus]
         G
Mä sanon hei, hei hei
N.C.
Että onko siinä laitaa
N.C.
Kun pappikin on vainaa
G        Bm
Joo, joo joo
      C
Ja me tuomiolle tullaan
         G        Bm
Mä sanon hei, hei hei
     C
Että onko siinä laitaa
    C
Kun pappiki on vainaa
G        Bm
Joo, joo joo
      C
Ja me tuomiolle tullaan
C
Niin kuin aina
G        Bm
Hei, hei hei
     C
Että onko siinä laitaa
    C
Kun pappiki on vainaa
G        Bm
Joo, joo joo
      C
Ja me tuomiolle tullaan
C
Niin kuin aina

            
            
Suggest correction
Creating personal tab
Creating personal tab
You can edit any tab online and save it as your Personal.

You can edit, replace or remove any tab part or add personal notes – all changes will be seen only by you.

Personal tabs can be accessed anytime from any device, even offline.
Learn more »
Give kudos to tab author, rate the tab!
1 2 3 4 5
comments
print report bad tab
guest
You may want to rate the tab now too:
select rating
Wanna post a correction for this tab? Suggest correction