Oops, an error
Loading. Please wait.

Sikalortti chords

67 views 3 this week
no commentswrite comment
1 2 3 4 5
3 more votes to show rating
add to favorites
×
Save as Personal and add changes to this tab that will be seen only by you. Learn more ›
×
You can save this tab as Personal to edit and correct it or add notes. All changes will be seen only by you. Learn more »
launch autoscroll
font size
0
reset
transpose
0
reset
simplify chords
display chords
guitar tuner
edit
Autoscroll
slow
fast
+/-
esc
set tempo
stop
Strumming
There is no strumming pattern for this song yet. and get +5 IQ
[Verse 1]
Bm                        D
Kuka sitten juoruaas, jos juttuämmät hukkuus
F#m                            A
Kirkonkylän tyttöjä salaa, kun talon tyttäret nukkuu
Bm                          D
Akat häjyt ärisöö, ne pitää huolen kyllä siitä
F#m                        A
Että niiren tyttäretkin on aivan samaa mieltä


[Chorus]
D                                 A
Tämän kylän flikkaan viäres on ku pukki tuomiolla
         E7                  A
Ei niitä viitsi halata, eikä halaamatta olla
D                              A
Tässä kylässä poikia on, mutta niisson piäni vika
  E7                         A
Suu on toisella korvalla ja nassuttaa kuin sika


[Solo]
   1 + 2 + 3 + 4 +   1 + 2 + 3 + 4 +   1 + 2 + 3 + 4 +   1 + 2 + 3 + 4 +
   D                                   A
e|-2-2-2-2-2-2-2-2-|-2-------2-------|-----------------|---------0-------|
B|-----------------|-----3-5---5-3-5-|-5---5-5-5---5---|-5---2-3---3-2-3-|
G|-----------------|---2-------------|-----------------|---2-------------|
D|-----------------|-----------------|-----------------|-----------------|
A|-----------------|-----------------|-----------------|-----------------|
E|-----------------|-----------------|-----------------|-----------------|

   1 + 2 + 3 + 4 +   1 + 2 + 3 + 4 +   1 + 2 + 3 + 4 +   1 + 2 + 3 + 4 +
   E7                                  A
e|-----------------|-----------------|-----------------|-----------------|
B|-3-3-3-----------|-3-3-3-----3-----|-2---2-2---3---5-|-----2-3-5-3-2---|
G|-------4-4-4-4-4-|-------4---------|-----------------|---2-------------|
D|-----------------|-----------------|-----------------|-----------------|
A|-----------------|-----------------|-----------------|-----------------|
E|-----------------|-----------------|-----------------|-----------------|


[Verse 2]
Bm                              D
Tässä kylässä tyttöjä on, mutta liian julmaa sorttii
F#m                                  A
Pitkä selekä ja matalat jalaat ja ne kävelee ku sikalortti
Bm                                 D
Herraan päivillä päätetty on, että komia se naira pitää
F#m                                  A
Löytyykö toista tämän poijan moista, teistä ei tule mitään


[Chorus]
D                                 A
Tämän kylän flikkaan viäres on ku pukki tuomiolla
         E7                  A
Ei niitä viitsi halata, eikä halaamatta olla
D                              A
Tässä kylässä poikia on, mutta niisson piäni vika
  E7                         A
Suu on toisella korvalla ja nassuttaa kuin sika


[Solo]
   1 + 2 + 3 + 4 +   1 + 2 + 3 + 4 +   1 + 2 + 3 + 4 +   1 + 2 + 3 + 4 +
   D                                   A
e|-2-2-2-2-2-2-2-2-|-2-------2-------|-----------------|---------0-------|
B|-----------------|-----3-5---5-3-5-|-5---5-5-5---5---|-5---2-3---3-2-3-|
G|-----------------|---2-------------|-----------------|---2-------------|
D|-----------------|-----------------|-----------------|-----------------|
A|-----------------|-----------------|-----------------|-----------------|
E|-----------------|-----------------|-----------------|-----------------|

   1 + 2 + 3 + 4 +   1 + 2 + 3 + 4 +   1 + 2 + 3 + 4 +   1 + 2 + 3 + 4 +
   E7                                  A
e|-----------------|-----------------|-----------------|-----------------|
B|-3-3-3-----------|-3-3-3-----3-----|-2---2-2---3---5-|-----2-3-5-3-2---|
G|-------4-4-4-4-4-|-------4---------|-----------------|---2-------------|
D|-----------------|-----------------|-----------------|-----------------|
A|-----------------|-----------------|-----------------|-----------------|
E|-----------------|-----------------|-----------------|-----------------|


[Chorus]
D                                 A
Tämän kylän flikkaan viäres on ku pukki tuomiolla
         E7                  A
Ei niitä viitsi halata, eikä halaamatta olla
D                              A
Tässä kylässä poikia on, mutta niisson piäni vika
  E7                         A
Suu on toisella korvalla ja nassuttaa kuin sika

[Bridge]
D                  A                  E7                 A
Laa  lalalalalalalalaa  lalalalalalalalaa  lalalalalalalalaa

[Outro]
D                             A
Kuka ja mitä ja minkä tähäre, kuka ja mitä ja minkä tähäre
E7                            A
Kuka ja mitä ja minkä tähäre niille ei mikään riitä
D                             A
Kuka ja mitä ja minkä tähäre, kuka ja mitä ja minkä tähäre
E7                            A                     D  A  Bm
Kuka ja mitä ja minkä tähäre niille ei mikään riitä

            
            
Suggest correction
Creating personal tab
Creating personal tab
You can edit any tab online and save it as your Personal.

You can edit, replace or remove any tab part or add personal notes – all changes will be seen only by you.

Personal tabs can be accessed anytime from any device, even offline.
Learn more »
Give kudos to tab author, rate the tab!
1 2 3 4 5
comments
print report bad tab
guest
You may want to rate the tab now too:
select rating
Wanna post a correction for this tab? Suggest correction