Oops, an error
Loading. Please wait.

Sikalortti Chords

19 views 3 this week
no commentswrite comment
1 2 3 4 5
3 more votes to show rating
add to favorites
launch autoscroll
font size
0
reset
transpose
0
reset
simplify chords
display chords
guitar tuner
Autoscroll
slow
fast
+/-
esc
set tempo
stop
Help us to improve Ultimate-Guitar.com Take our survey!
×
Author
Difficulty
intermediate
[Verse 1]
Bm                        D
Kuka sitten juoruaas, jos juttuämmät hukkuus
F#m                            A
Kirkonkylän tyttöjä salaa, kun talon tyttäret nukkuu
Bm                          D
Akat häjyt ärisöö, ne pitää huolen kyllä siitä
F#m                        A
Että niiren tyttäretkin on aivan samaa mieltä


[Chorus]
D                                 A
Tämän kylän flikkaan viäres on ku pukki tuomiolla
         E7                  A
Ei niitä viitsi halata, eikä halaamatta olla
D                              A
Tässä kylässä poikia on, mutta niisson piäni vika
   E7                           A
Suu  on toisella korvalla ja nassuttaa kuin sika


[Solo]
   D                                   A
e|-2-2-2-2-2-2-2-2-|-2-----0-2-0---0-|-0--0-0-0--0--|-0-------0-------|
B|-----------------|-----3-------3---|--------------|-----2-3---3-2-3-|
G|-----------------|---2-------------|--------------|---2-------------|
D|-----------------|-----------------|--------------|-----------------|
A|-----------------|-----------------|--------------|-----------------|
E|-----------------|-----------------|--------------|-----------------|

   E7                               A
e|-----------------|--------------|------------0-|--------0------|
B|-3-3-3-0-0-0-0-0-|-3-3-3-0--3---|-2--2-2--3----|----2-3---3-1--|
G|-----------------|--------------|--------------|--2------------|
D|-----------------|--------------|--------------|---------------|
A|-----------------|--------------|--------------|---------------|
E|-----------------|--------------|--------------|---------------|


[Verse 2]
Bm                              D
Tässä kylässä tyttöjä on, mutta liian julmaa sorttii
F#m                                  A
Pitkä selekä ja matalat jalaat ja ne kävelee ku sikalortti
Bm                                 D
Herraan päivillä päätetty on, että komia se naira pitää
F#m                                  A
Löytyykö toista tämän poijan moista, teistä ei tule mitään


[Chorus]
D                                 A
Tämän kylän flikkaan viäres on ku pukki tuomiolla
         E7                  A
Ei niitä viitsi halata, eikä halaamatta olla
D                              A
Tässä kylässä poikia on, mutta niisson piäni vika
   E7                           A
Suu  on toisella korvalla ja nassuttaa kuin sika


[Solo]
   D                                   A
e|-2-2-2-2-2-2-2-2-|-2-----0-2-0---0-|-0--0-0-0--0--|-0-------0-------|
B|-----------------|-----3-------3---|--------------|-----2-3---3-2-3-|
G|-----------------|---2-------------|--------------|---2-------------|
D|-----------------|-----------------|--------------|-----------------|
A|-----------------|-----------------|--------------|-----------------|
E|-----------------|-----------------|--------------|-----------------|

   E7                               A
e|-----------------|--------------|------------0-|--------0------|
B|-3-3-3-0-0-0-0-0-|-3-3-3-0--3---|-2--2-2--3----|----2-3---3-1--|
G|-----------------|--------------|--------------|--2------------|
D|-----------------|--------------|--------------|---------------|
A|-----------------|--------------|--------------|---------------|
E|-----------------|--------------|--------------|---------------|


[Chorus]
D                                 A
Tämän kylän flikkaan viäres on ku pukki tuomiolla
         E7                  A
Ei niitä viitsi halata, eikä halaamatta olla
D                              A
Tässä kylässä poikia on, mutta niisson piäni vika
   E7                           A
Suu  on toisella korvalla ja nassuttaa kuin sika

D                  A                  E7                 A
Laa  lalalalalalalalaa  lalalalalalalalaa  lalalalalalalalaa

D                             A
Kuka ja mitä ja minkä tähäre, kuka ja mitä ja minkä tähäre
E7                               A
Kuka ja mitä ja minkä tähäre niille ei mikään riitä
D                             A
Kuka ja mitä ja minkä tähäre, kuka ja mitä ja minkä tähäre
E7                               A                  D  A  Bm
Kuka ja mitä ja minkä tähäre niille ei mikään riitä
Suggest correction
Give kudos to tab author, rate the tab!
1 2 3 4 5
comments
print report bad tab
guest
You may want to rate the tab now too:
select rating
Wanna post a correction for this tab? Suggest correction