Oops, an error
Loading. Please wait.

The Other Stripped tab

by Lauv
4,003 views 207 this week
1 commentread comment
1 2 3 4 5
x 5
add to favorites
×
Save as Personal and add changes to this tab that will be seen only by you. Learn more ›
×
You can save this tab as Personal to edit and correct it or add notes. All changes will be seen only by you. Learn more »
launch autoscroll
font size
0
reset
how to read this tab
guitar tuner
edit
Autoscroll
slow
fast
+/-
esc
set tempo
stop
Author
Difficulty
[Verse 1]
Like a spotlight the water hits me, ran it extra cold to shake the words from my mouth
e|-------------|--------|-------------|
B|-------8--7--|--------|-------5-----|
G|-------------|--------|----------4--|
D|-------------|--------|-------------| x2
A|--6/7-----5--|--------|--2/3--------|
E|-------------|--------|----------3--|

Though I know that no one's listening, I nervously rehearse for when you're around
e|-------------|--------|-------------|
B|-------8--7--|--------|-------5-----|
G|-------------|--------|----------4--|
D|-------------|--------|-------------| x2
A|--6/7-----5--|--------|--2/3--------|
E|-------------|--------|----------3--|

And I keep waiting like you might change my mind
e|-----------|
B|-----------|
G|--5-5-5----|
D|-----------|
A|-----------|
E|-----------|


e|------5/7\3--|
B|-------------|
G|-------------|
D|-------------|
A|-------------|
E|-------------|

[Chorus]
Who wrote the book on goodbye? There's never been a way to make this easy
e|-------------|--------|-------------|
B|-------8--7--|--------|-------5-----|
G|-------------|--------|----------4--|
D|-------------|--------|-------------| x2
A|--6/7-----5--|--------|--2/3--------|
E|-------------|--------|----------3--|

When there's nothing quite wrong but it don't feel right, either your head or your heart,
you set the other on fire
e|-------------|--------|-------------|
B|-------8--7--|--------|-------5-----|
G|-------------|--------|----------4--|
D|-------------|--------|-------------| x2
A|--6/7-----5--|--------|--2/3--------|
E|-------------|--------|----------3--|

[Verse 2]
Back and forth now I'm feelin' guilty, cause I just can't stop this pendulum in my head
e|-------------|--------|-------------|--------|-------------|--------|-------------|
B|-------------|--------|-------5-----|--------|-------8--7--|--------|-------5-----|
G|-------------|--------|----------4--|--------|-------------|--------|----------4--|
D|-------------|--------|-------------|--------|-------------|--------|-------------|
A|-------------|--------|--2/3--------|--------|--6/7-----5--|--------|--2/3--------|
E|-------------|--------|----------3--|--------|-------------|--------|----------3--|

Though I know that our time is ending, I'd rather lay forever right in this bed
e|-------------|--------|-------------|
B|-------8--7--|--------|-------5-----|
G|-------------|--------|----------4--|
D|-------------|--------|-------------| x2
A|--6/7-----5--|--------|--2/3--------|
E|-------------|--------|----------3--|

And I keep waiting like you might change my mind, give me one more night
e|----------------------------------------------------------------------|
B|----------------------------------------------------------------------|
G|----------------------------------------------------------------------|
D|----------------------------------------------------------------------|
A|----------------------------------------------------------------------|
E|----------------------------------------------------------------------|

e|------5/7\3--|
B|-------------|
G|-------------|
D|-------------|
A|-------------|
E|-------------|

[Chorus]
Who wrote the book on goodbye? There's never been a way to make this easy
e|-------------|--------|-------------|
B|-------8--7--|--------|-------5-----|
G|-------------|--------|----------4--|
D|-------------|--------|-------------| x2
A|--6/7-----5--|--------|--2/3--------|
E|-------------|--------|----------3--|

When there's nothing quite wrong but it don't feel right, either your head or your heart,
you set the other on fire
e|-------------|--------|-------------|
B|-------8--7--|--------|-------5-----|
G|-------------|--------|----------4--|
D|-------------|--------|-------------| x2
A|--6/7-----5--|--------|--2/3--------|
E|-------------|--------|----------3--|

No one knows (oh x2) x2
e|-------------|--------|-------------|
B|-------8--7--|--------|-------5-----|
G|-------------|--------|----------4--|
D|-------------|--------|-------------|
A|--6/7-----5--|--------|--2/3--------|
E|-------------|--------|----------3--|

[Bridge]
We fell from the peak, and the stars, they broke their code
e|--7-----|--------|--12------3--|--------|
B|--7-----|--------|--12------3--|--------|
G|--0-----|--------|--0-------0--|--------|
D|--------|--------|-------------|--------|
A|--------|--------|-------------|--------|
E|--------|--------|-------------|--------|

I'm trying to forget, how I landed on this road
e|--5-----|--------|--14-----10--|--------|
B|--5-----|--------|--12-----8---|--------|
G|--0-----|--------|--0------0---|--------|
D|--------|--------|-------------|--------|
A|--------|--------|-------------|--------|
E|--------|--------|-------------|--------|

I'm caught in between, what I wish and what know
e|--5-----|--------|--5--7---3---|--------|
B|--5-----|--------|--5--7---3---|--------|
G|--0-----|--------|--0--0---0---|--------|
D|--------|--------|-------------|--------|
A|--------|--------|-------------|--------|
E|--------|--------|-------------|--------|

When they say that you just know
e|--------3--|--------|--10----|------5/7\3--|
B|-----5-----|--------|--10----|-------------|
G|--4--------|--------|--9-----|-------------|
D|-----------|--------|--------|-------------|
A|-----------|--------|--------|-------------|
E|-----------|--------|--------|-------------|

[Chorus]
Who wrote the book on goodbye? There's never been a way to make this easy
e|-------------|--------|-------------|--------|-------------|--------|-------------|
B|-------8--7--|--------|-------5-----|--------|-------8--7--|--------|--5----------|
G|-------------|--------|----------4--|--------|-------------|--------|-------------|
D|-------------|--------|-------------|--------|-------------|--------|-------------|
A|--6/7-----5--|--------|--2/3--------|--------|--6/7-----5--|--------|--3----------|
E|-------------|--------|----------3--|--------|-------------|--------|-------------|

When there's nothing quite wrong but it don't feel right, either your head or your heart,
you set the other on fire
e|-------------|--------|-------------|
B|-------8--7--|--------|-------5-----|
G|-------------|--------|----------4--|
D|-------------|--------|-------------| x2
A|--6/7-----5--|--------|--2/3--------|
E|-------------|--------|----------3--|

Cuz no one knows (oh x2)
e|-------------|--------|-------------|
B|-------8--7--|--------|-------5-----|
G|-------------|--------|----------4--|
D|-------------|--------|-------------|
A|--6/7-----5--|--------|--2/3--------|
E|-------------|--------|----------3--|

No one knows (oh x2) x2
e|-------------|--------|-------------|
B|-------8--7--|--------|-------5-----|
G|-------------|--------|----------4--|
D|-------------|--------|-------------|
A|--6/7-----5--|--------|--2/3--------|
E|-------------|--------|----------3--|

No, no, no, no
e|-------------|--------|-------------|
B|-------8--7--|--------|--5----------|
G|-------------|--------|-------------|
D|-------------|--------|-------------|
A|--6/7-----5--|--------|--3----------|
E|-------------|--------|-------------|

************************************

| /  Slide up
| \  Slide down

************************************
Suggest correction
Creating personal tab
Creating personal tab
You can edit any tab online and save it as your Personal.

You can edit, replace or remove any tab part or add personal notes – all changes will be seen only by you.

Personal tabs can be accessed anytime from any device, even offline.
Learn more »
comments
print report bad tab
1 comment total.
0 reply
vaan13.fa 10 Jun 24, 2017 12:09 PM

One of my favorite songs and now I can play it thanks to this 😄

guest
You may want to rate the tab now too:
select rating
Wanna post a correction for this tab? Suggest correction