Oops, an error
Loading. Please wait.

I Dont Recall chords

2,148 views 9 this week
1 commentread comment
1 2 3 4 5
x 3
add to favorites
×
Save as Personal and add changes to this tab that will be seen only by you. Learn more ›
×
You can save this tab as Personal to edit and correct it or add notes. All changes will be seen only by you. Learn more »
launch autoscroll
font size
0
reset
transpose
0
reset
display chords
guitar tuner
edit
Autoscroll
slow
fast
+/-
esc
set tempo
stop
Author
Strumming
There is no strumming pattern for this song yet. and get +5 IQ
This is a nice song from the Album ''Incorruptible Heart''
I'm 100% sure that this tab is correct 
Enjoy it :)

http://lavenderdiamond.net/
Tabbed by: AlexVdz12
E-mail: amvdz12@gmail.com


INTRO(Guitar): 
e|-----------7----------5-----------------|
B|-----------9-x8-------5-x8--------------|
G|-----------9----------6-----------------|  X2
D|----------------------------------------|
A|----------------------------------------|
E|----------------------------------------|


VERSE: 
   E              A
Oh no, I don't recall
        E                     A
I can't remember anything at all
            G#m              F#m
The life we knew is lost and gone
                    A
And it's hard without you


VERSE: 
    E               A
I know the world is new
             E                     A
And what you lost inside, inside of you
            G#m               F#m
And all the love we shared is true
                    A
But it's hard without you


CHORUS:
F#m  A        E                         B
Ooooh life is gone, and your heart is gone
                    F#m
But it's hard to go
    A           B   A
Ooooh without you


AFTER CHORUS:
e|-----------7---------5------------------|
B|-----------9-x8------5-x8---------------|
G|-----------9---------6------------------|  X2
D|----------------------------------------|
A|----------------------------------------|
E|----------------------------------------|


VERSE:
   E              A
Oh no, I don't recall
        E                     A
I can't remember anything at all
            G#m              F#m
And what we knew that life is gone
                    A
And it's hard without you


CHORUS:
F#m  A              E                       B
Ooooh my world is gone, and your heart is gone
                    F#m
But it's hard to go
    A           B   A
Ooooh without you


AFTER CHORUS:
e|-----------7---------5------------------|
B|-----------9-x8------5-x8---------------|
G|-----------9---------6------------------|  X2
D|----------------------------------------|
A|----------------------------------------|
E|----------------------------------------|


e|-----4------2-------5------5------------|
B|-----4-x8---2-x8----6-x8 --6-x8---------|
G|-----4------2-------6------6------------|
D|----------------------------------------| END
A|----------------------------------------|
E|----------------------------------------|

E    A
Ooooh 
E    A
Ooooh 
E    A
Ooooh 
G#m              F#m                     A
Life we shared is gone and it's hard without you

            
            
Suggest correction
Creating personal tab
Creating personal tab
You can edit any tab online and save it as your Personal.

You can edit, replace or remove any tab part or add personal notes – all changes will be seen only by you.

Personal tabs can be accessed anytime from any device, even offline.
Learn more »
Give kudos to tab author, rate the tab!
1 2 3 4 5
comments
print report bad tab
1 comment total.
0 reply
AlexVdz12 605 Oct 31, 2013 03:27 PM

e|-----------7---------5-----------------|
B|-----------9-x8------5-x8--------------|
G|-----------9---------6-----------------| X2
D|----------------------------------------|
A|----------------------------------------|
E|----------------------------------------|

guest
You may want to rate the tab now too:
select rating
Wanna post a correction for this tab? Suggest correction