Oops, an error
Loading. Please wait.

Visions bass

31 views 1 this week
no commentswrite comment
1 2 3 4 5
3 more votes to show rating
add to favorites
×
Save as Personal and add changes to this tab that will be seen only by you. Learn more ›
×
You can save this tab as Personal to edit and correct it or add notes. All changes will be seen only by you. Learn more »
launch autoscroll
font size
0
reset
guitar tuner
edit
Autoscroll
slow
fast
+/-
esc
set tempo
stop
Tabbed by: 6METAL6BASSIST6
E-mail: petergriffinav@gmail.com

Tuning: EADG

Re-tabbed.

0:11

G|------------|
D|------------|
A|----2---4---|
E|5-----------|

G|----------------------------------------------------------------|
D|------------------------5---6---7-----------7-------7---5-------|
A|5-----------5-------5---------------------------------------7---|
E|----------------------------------------------------------------|

G|----------------------------------------------------------------|
D|------------------------2---3---4-----------4---4-------4-------|
A|2-----------2-------2-------------------------------4-----------|
E|----------------------------------------------------------------|

G|----------------------------------------------------------------|
D|5-----------5---5-------5-------4-----------4-----------5-------|
A|--------------------5-------------------------------------------|
E|----------------------------------------------------------------|

G|----------------------------------------------------------------|
D|7-----------7-------7-----------7-----------7-------7---7---7---|
A|------------------------7---7-----------------------------------|
E|----------------------------------------------------------------|

G|----------------------------------------------------------------|
D|----------------------------------------------------------------|
A|5---------------------------------------------------------------|
E|----------------------------------------------------------------|

G|----------------------------------------------------------------|
D|----------------------------------------------------------------|
A|--------------------------------------------------------2---3---|
E|----------------------------------------------------5-----------|

0:33

G|----------------------------------------------------------------|
D|------------------------5---6---7-----------7-------7---5-------|
A|5-----------5-------5---------------------------------------7---|
E|----------------------------------------------------------------|

G|----------------------------------------------------------------|
D|------------------------2---3---4-----------4---4-------4-------|
A|2-----------2-------2-------------------------------4-----------|
E|----------------------------------------------------------------|

G|----------------------------------------------------------------|
D|5-----------5---5-------5-------4-----------4-----------5-------|
A|--------------------5-------------------------------------------|
E|----------------------------------------------------------------|

G|----------------------------------------------------------------|
D|7-----------7-------7-----------7-----------7-------7---5-------|
A|------------------------7---7-------------------------------7---|
E|----------------------------------------------------------------|

0:47

G|----------------------------------------------------------------|
D|----------------------------------------4-----------------------|
A|----2---5-------------------7-------5-----------------------5---|
E|3-----------5-------------------7-----------5-----------5-------|

G|--------4---4---------------------------------------------------|
D|5---------------7-------5---------------------------------------|
A|----------------------------7---5-----------5-------5---5-------|
E|------------------------------------------------------------5---|

G|----------------------------------------------------------------|
D|----------------------------------------4-----------------------|
A|----2---5-------------------7-------5-----------------------5---|
E|3-----------5-------------------7-----------5-----------5-------|

G|--------4---4-------------------|
D|5---------------7-------5-------|
A|----------------------------7---|
E|--------------------------------|

G|----------------------------------------------------------------|
D|----------------------------------------------------------------|
A|5-----------5-------5-----------5-----------5-----------2---3---|
E|------------------------5---------------------------5-----------|

1:04

G|----------------------------------------------------------------|
D|------------------------5---6---7-----------7-------7---5-------|
A|5-----------5-------5---------------------------------------7---|
E|----------------------------------------------------------------|

G|----------------------------------------------------------------|
D|------------------------2---3---4-----------4---4-------4-------|
A|2-----------2-------2-------------------------------4-----------|
E|----------------------------------------------------------------|

G|----------------------------------------------------------------|
D|5-----------5---5-------5-------4-----------4-----------5-------|
A|--------------------5-------------------------------------------|
E|----------------------------------------------------------------|

G|----------------------------------------------------------------|
D|7-----------7-------7-----------7-----------7-------7---5-------|
A|------------------------7---7-------------------------------7---|
E|----------------------------------------------------------------|

1:18

G|----------------------------------------------------------------|
D|----------------------------------------4-----------------------|
A|----2---5-------------------7-------5-----------------------5---|
E|3-----------5-------------------7-----------5-----------5-------|

G|--------4---4---------------------------------------------------|
D|5---------------7-------5---------------------------------------|
A|----------------------------7---5-----------5-------5---5-------|
E|------------------------------------------------------------5---|

G|----------------------------------------------------------------|
D|----------------------------------------4-----------------------|
A|----2---5-------------------7-------5-----------------------5---|
E|3-----------5-------------------7-----------5-----------5-------|

G|--------4---4-------------------|
D|5---------------7-------5-------|
A|----------------------------7---|
E|--------------------------------|

G|----------------------------------------------------------------|
D|----------------------------------------------------------------|
A|5---------------------------------------------------------------|
E|----------------------------------------------------------------|

G|----------------------------------------------------------------|
D|----------------------------------------------------------------|
A|--------------------------------------------------------2---3---|
E|----------------------------------------------------5-----------|

1:37

G|----------------------------------------------------------------|
D|------------------------5---6---7-----------7-------7---5-------|
A|5-----------5-------5---------------------------------------7---|
E|----------------------------------------------------------------|

G|----------------------------------------------------------------|
D|------------------------2---3---4-----------4---4-------4-------|
A|2-----------2-------2-------------------------------4-----------|
E|----------------------------------------------------------------|

G|----------------------------------------------------------------|
D|5-----------5---5-------5-------4-----------4-------4---5---/---|
A|--------------------5-------------------------------------------|
E|----------------------------------------------------------------|

G|----------------------------------------------------------------|
D|7-----------7---7---7---7---7---7-------7-------7---7---5-------|
A|------------------------------------7-------7---------------7---|
E|----------------------------------------------------------------|

1:53

G|----------------------------------------------------------------|
D|------------------------5---6---7-----------7-------7---5-------|
A|5-----------5-------5---------------------------------------7---|
E|----------------------------------------------------------------|

G|----------------------------------------------------------------|
D|------------------------2---3---4-----------4---4-------4-------|
A|2-----------2-------2-------------------------------4-----------|
E|----------------------------------------------------------------|

G|----------------------------------------------------------------|
D|5-------5---5---5-------5-------4-----------4---4---4---5-----/-|
A|--------------------5-------------------------------------------|
E|----------------------------------------------------------------|

G|----------------------------------------------------------------|
D|7-----------7-------7-----------7-----------7-------7---5-------|
A|------------------------7---7-------------------------------5---|
E|----------------------------------------------------------------|

G|--------------------------------------------------------------------|
D|--------------------------------------------------------------------|
A|5-----------5-------5-----------5-----------5-------5-----------5---|
E|------------------------5-------------------------------5-----------|

            
            
Suggest correction
Creating personal tab
Creating personal tab
You can edit any tab online and save it as your Personal.

You can edit, replace or remove any tab part or add personal notes – all changes will be seen only by you.

Personal tabs can be accessed anytime from any device, even offline.
Learn more »
Give kudos to tab author, rate the tab!
1 2 3 4 5
comments
print report bad tab
guest
You may want to rate the tab now too:
select rating
Wanna post a correction for this tab? Suggest correction