Oops, an error
Loading. Please wait.

Santa Ana Wind Tab

version 1
version 1

Whole song

Interactive

16,830 views 6 this week
1 commentread comment
1 2 3 4 5
excellent!
x 4
add to favorites
launch autoscroll
font size
0
reset
how to read this tab
guitar tuner
Autoscroll
slow
fast
+/-
esc
set tempo
stop
Help us to improve Ultimate-Guitar.com Take our survey!
×
Contributor
Difficulty
advanced
#----------------------------------PLEASE NOTE---------------------------------#
#This file is the author's own work and represents their interpretation of the #
#song. You may only use this file for private study, scholarship, or research. #
#------------------------------------------------------------------------------#

                                 SANTA ANA WIND
                          As recorded by Lawson Rollins
                         (Released as a Single in 2009)

Music by Lawson Rollins

Gtr I (E A D G B E) - 'Untitled'

  H=104
 2/2
  Gtr I
   |--3--|  |--3--|  |--3--|  |--3--|
   E  E  E  E  E  E  E  E  E  E  E  E
|-14-12-11-14-12-11-------------------|
|-------------------13-12-10-13-12-10-|
|-------------------------------------|
|-------------------------------------|
|-------------------------------------|
|-------------------------------------|


   |-3-|  |-3-|  |-3-|  |-3-|   |-3-|  |-3-| |-3-|  |-3-|
   E E E  E E E  E E E  E E E   E E E  E E E E E E  E E E
|-----------------------------|---------------------------|
|-----------------------------|---------------------------|
|-11-9-8-11-9-8---------------|---------------------------|
|---------------10-9-7-10-9-7-|---------------------------|
|-----------------------------|-9-7-6-10-7-6-9-7-6-10-7-6-|
|-----------------------------|---------------------------|


                  $
  Q  +Q   E E E E    Q  Q  E E E E   Q  Q  E E E E   E E E E E E E E
|-----------------||---------------|---------------|-----------------|
|-----------------||-5--5----------|-7--7----------|-5-4-5-7-8-7-5-7-|
|---------------4-||-------------4-|-------------4-|-----------------|
|-------------5---||-----------5---|-----------5---|-----------------|
|-7--(7)----7-----||---------7-----|---------7-----|-----------------|
|-----------------||---------------|---------------|-----------------|


 1/2
             |-3-|  |-3-|  |-3-|  |-3-|   |-3-| |-3-| |-3-| |-3-|
  Q  +Q      E E E  E E E  E E E  E E E   E E E E E E E E E E E E
|---------|-12-0-0-11-0-0-12-0-0-11-0-0-|-8-0-0-7-0-0-8-0-0-7-0-0--|
|-8--(8)--|-----------------------------|--------------------------|
|---------|-----------------------------|--------------------------|
|---------|-----------------------------|--------------------------|
|---------|-----------------------------|--------------------------|
|---------|-----------------------------|--------------------------|


 3/2                              2/2
   E  E  E  E  +E   Q  E +Q   Q    Q  E  E  +Q   E E
|--------------------------------|-------0--(0)------|
|-10-10-10-12-(12)-10--8-(8)-----|-------0--(0)------|
|-11-11-11-12-(12)-11--9-(9)-----|-------8--(8)------|
|--------------------------------|------10-(10)------|
|--------------------------------|----9--------------|
|-----------------------------3S=|=7-------------8-7-|


                                |-3-|
  E E E E E E E E   Q  E E +Q   E E E
|-----------------|------0-(0)----------|
|-----------------|------0-(0)----------|
|-----------------|------0-(0)----------|
|-----------------|------8-(8)----------|
|-----------------|----7--------9-7-7---|
|-7-8-8-7-7-8-8-7-|-8-------------------|


  |--3--|  |-3-| |-3-| |-3-|
  E  E  E  E E E E E E E E E
|----------------------------|
|----------------------------|
|----------------------------|
|----------------------------|
|-7-10-10-10-9-9-9-7-7---7-7-|
|----------------------8-----|


                     To Coda
  Q  E  E  +Q    S  S  S  S   Q   S  S  S  S Q  Q
|-------0--(0)---0--0--0--0-|-----0--0--0--0--------|
|-------0--(0)---0--0--0--0-|-----0--0--0--0--------|
|-------8--(8)---8--8--8--8-|-----8--8--8--8--------|
|------10-(10)--10-10-10-10-|----10-10-10-10--------|
|----9-----------9--9--9--9-|-----9--9--9--9--------|
|-7--------------7--7--7--7-|-----7--7--7--7----0---|


                                     |-3--|
  E E E E +E  Q   E    +E  Q  E +Q   E E  E
|-7-7-7-7-(7)-5---8-|--(8)-7--7-(7)---------|
|-8-8-8-8-(8)-7--10-|-(10)-8--8-(8)---------|
|-------------------|-----------------------|
|-------------------|-----------------------|
|-------------------|-----------------------|
|-------------------|----------------7-8-10-|


  |-3--| |-3--| |-3-| |-3--|   |-3--| |-3--|
  E E  E E E  E E E E E E  E   E E  E E E  E Q  Q
|----------------------------|---------------7-------|
|----------------------------|-7-8-10-7-8-10---------|
|---------------7-8-9--------|-----------------------|
|-7-9-10--------------7-9-10-|-----------------------|
|--------7-9-10--------------|-----------------------|
|----------------------------|------------------0----|


   E  E  E  E  +E   Q   E    +E   Q  E +Q   Q
|-10-10-10-10-(10)--8--10-|-(10)--8--7-(7)-----|
|-12-12-12-12-(12)-10--12-|-(12)-10--8-(8)-----|
|-------------------------|--------------------|
|-------------------------|--------------------|
|-------------------------|--------------------|
|-------------------------|-----------------0--|


   |--3--|  |--3--|  |--3--|  |--3--|    |--3--|  |--3--|
   E  E  E  E  E  E  E  E  E  E  E  E    E  E  E  E  E  E  Q  Q
|-14-11-12-14-12-11-15-12-14-15-14-12-|-17-14-15-17-15-14-19-----|
|-------------------------------------|--------------------------|
|-------------------------------------|--------------------------|
|-------------------------------------|--------------------------|
|-------------------------------------|--------------------------|
|-------------------------------------|-----------------------0--|


   |--3--|  |--3--|  |--3--|  |--3--|
   E  E  E  E  E  E  E  E  E  E  E  E
|-15-12----------12-14-12----------12-|
|-------13----13----------13----13----|
|----------12----------------12-------|
|-------------------------------------|
|-------------------------------------|
|-------------------------------------|


   |--3--|  |--3--|  |--3--|  |--3--|    |--3--|  |--3--|  |-3--|  |-3--|
   E  E  E  E  E  E  E  E  E  E  E  E    E  E  E  E  E  E  E E  E  E  E E
|-15-12-14-12-15-12-15-12----------11-|-14-11----------11-11-8----------8--|
|-------------------------13----13----|-------13----13---------10----10----|
|----------------------------12-------|----------14---------------11-------|
|-------------------------------------|------------------------------------|
|-------------------------------------|------------------------------------|
|-------------------------------------|------------------------------------|


   |-3-|  |-3-|          |--3--|  |--3--|  |--3--|  |--3--|
   E E E  E E E Q  Q     E  E  E  E  E  E  E  E  E  E  E  E
|-10-8-7--------------|-15-12----------12-14-12----------12-|
|--------10-8-7-------|-------13----13----------13----13----|
|---------------9-----|----------12----------------12-------|
|---------------------|-------------------------------------|
|---------------------|-------------------------------------|
|------------------0--|-------------------------------------|


   |--3--|  |--3--|  |--3--|  |--3--|
   E  E  E  E  E  E  E  E  E  E  E  E
|-17-14-15-14-17-14-17-14----------14--|
|-------------------------15----15-----|
|----------------------------14--------|
|--------------------------------------|
|--------------------------------------|
|--------------------------------------|


   |--3--|  |--3--|  |-3--|  |-3--|
   E  E  E  E  E  E  E E  E  E  E E
|-14-11----------11-11-8----------8-|
|-------13----13---------10----10---|
|----------14---------------11------|
|-----------------------------------|
|-----------------------------------|
|-----------------------------------|


                           |-3-| |-3-| |-3-| |-3-|
   S S S S S  E S Q   Q    E E E E E E E E E E E E
|-10-7-------------------|-------------------------|
|------8-----------------|-------------------------|
|--------7---------------|-------------------------|
|----------9-------------|-------------------4-5-7-|
|------------10-9-7------|-------2-3-5-2-3-5-------|
|--------------------12S=|=2-3-5-------------------|


  |-3-| |-3-| |-3-|      |-3-| |-3-|  |-3-|  |-3-|    |-3-|  |-3-|
  E E E E E E E E E Q    E E E E E E  E E E  E E E    E E E  E E E Q  Q
|----------------------|---------------------------|-10-8-7--------------|
|-------------------5--|-7-4-------4-10-7--------7-|--------10-8-7-------|
|-------4-5-7-4-5-7----|-----5---5--------8----8---|---------------9-----|
|-4-5-7----------------|-------7------------10-----|---------------------|
|----------------------|---------------------------|---------------------|
|----------------------|---------------------------|------------------0--|


  |-3-| |-3-| |-3-| |-3-|   |-3-| |-3-| |-3-|      |-3-| |-3-|  |-3-|  |-3-|
  E E E E E E E E E E E E   E E E E E E E E E Q    E E E E E E  E E E  E E E
|-------------------------|----------------------|---------------------------|
|-------------------------|-------------------5--|-7-4-------4-10-7--------7-|
|-------------------------|-------4-5-7-4-5-7----|-----5---5--------8----8---|
|-------------------4-5-7-|-4-5-7----------------|-------7------------10-----|
|-------2-3-5-2-3-5-------|----------------------|---------------------------|
|-2-3-5-------------------|----------------------|---------------------------|


   |--3--|  |--3--|
   E  E  E  E  E  E   Q   Q    E E E E +E  Q   E
|-------------------<12>-----|-7-7-7-7-(7)-5---8-|
|-13-10----------10----------|-8-8-8-8-(8)-7--10-|
|-------11----11-------------|-------------------|
|----------13----------------|-------------------|
|----------------------------|-------------------|
|-------------------------0--|-------------------|


                       |-3--| |-3--| |-3--| |-3-|
   +E  Q  E +Q    Q    E E  E E E  E E E  E E E E
|--(8)-7--7-(7)------|----------------------------|
|-(10)-8--8-(8)------|----------------------------|
|--------------------|----------------------7-8-9-|
|--------------------|--------7-9-10--------------|
|--------------------|---------------7-9-10-------|
|----------------12S=|=7-8-10---------------------|


  |-3--| |-3--| |-3--|
  E E  E E E  E E E  E E E    E  E  E  E  +E   Q   E    +E   Q  E +Q   Q
|----------------------7---|-10-10-10-10-(10)--8--10-|-(10)--8--7-(7)-----|
|--------7-8-10-7-8-10-----|-12-12-12-12-(12)-10--12-|-(12)-10--8-(8)-----|
|--------------------------|-------------------------|--------------------|
|-7-9-10-------------------|-------------------------|--------------------|
|--------------------------|-------------------------|--------------------|
|------------------------0-|-------------------------|-----------------0--|


   |--3--|  |--3--|  |--3--|  |--3--|
   E  E  E  E  E  E  E  E  E  E  E  E
|-14-11-12-14-12-11-15-12-14-15-14-12-|
|-------------------------------------|
|-------------------------------------|
|-------------------------------------|
|-------------------------------------|
|-------------------------------------|


   |--3--|  |--3--|             |-3--| |-3-| |-3-| |-3-|
   E  E  E  E  E  E  Q   +Q     E  E E E E E E E E E E E
|-17-14-15-17-15-14-19--(19)--|-7-10-------7-8-7-------7--|
|-----------------------------|------8---8-------8---8----|
|-----------------------------|--------7-----------7------|
|-----------------------------|---------------------------|
|-----------------------------|---------------------------|
|-----------------------------|---------------------------|


   |-3-| |-3--|  |-3-| |-3-|
   E E E E  E E  E E E E E E
|-10-7-8-7-10-7-10-7-------7-|
|--------------------8---8---|
|----------------------7-----|
|----------------------------|
|----------------------------|
|----------------------------|


   |-3-|  |-3-|  |-3-| |-3-|   |-3--| |-3--| |-3--|
   E E E  E E E  E E E E E E   E E  E E E  E E E  E  Q
|-10-8-7---------------------|---------------7-8-10-12--|
|--------10-8-7-10-8-7-------|-7-8-10-7-8-10------------|
|----------------------9-8-9-|--------------------------|
|----------------------------|--------------------------|
|----------------------------|--------------------------|
|----------------------------|--------------------------|


  |-3-| |-3-| |-3-| |-3-|   |-3-| |-3-| |-3-| |-3-|   |-3-| |-3-| |-3-| |-3-|
  E E E E E E E E E E E E   E E E E E E E E E E E E   E E E E E E E E E E E E
|-5-2-------2-3-2-------2-|-5-2-3-2-5-2-5-2-------2-|-3-2-0--------------------|
|-----3---3-------3---3---|-----------------3---3---|-------3-1-0-3-1-0---0-1--|
|-------2-----------2-----|-------------------2-----|-------------------2------|
|-------------------------|-------------------------|--------------------------|
|-------------------------|-------------------------|--------------------------|
|-------------------------|-------------------------|--------------------------|


  |-3-| |-3-|
  E E E E E E E E Q
|---------0-2-3-2-0--|
|-3-0-1-3------------|
|--------------------|
|--------------------|
|--------------------|
|--------------------|


  |-----7-----|  |-----7------| |-----7-----|  |-----7------|
  S S S S S S S  S S S S S  S S S S S S S S S  S S S S S  S S
|-5-2--------------------7-10-7-5-2--------------------7-10-7-|
|-----3----------------8------------3----------------8--------|
|-------2------------7----------------2------------7----------|
|---------4--------9--------------------4--------9------------|
|-----------5-5S10------------------------5-5S10--------------|
|-------------------------------------------------------------|


  |-----7-----|  |-----7------|
  S S S S S S S  S S S S S  S S S S S S  S S S  S
|-5-2--------------------7-10-7-7-4-----10-7------|
|-----3----------------8------------6--------9----|
|-------2------------7----------------7--------10-|
|---------4--------9------------------------------|
|-----------5-5S10--------------------------------|
|-------------------------------------------------|


                 |-----7------|  |-------7-------|
    Q     +Q     S S S S S S  S  S  S  S  S S  S S
|-<12>--(<12>)--10-7-------7-15-12----------7-10-7----|
|--------------------8---8---------13----13-----------|
|----------------------7--------------12--------------|
|-----------------------------------------------------|
|-----------------------------------------------------|
|-----------------------------------------------------|


   |-----7------|  |-------7-------|  |-----7------| |------7------|
   S S S S S S  S  S  S  S  S S  S S  S S S S S S  S S S S S S  S  S
|-10-7-------7-15-12----------7-10-7-10-7-------7-10-7-------7-10-12-|
|------8---8---------13----13-------------8---8--------8---8---------|
|--------7--------------12------------------7------------7-----------|
|--------------------------------------------------------------------|
|--------------------------------------------------------------------|
|--------------------------------------------------------------------|


  D.S. al Coda
  Q  Q  E E E E
|-0-------------||
|---------------||
|-------------4-||
|-----------5---||
|---------7-----||
|----0----------||


  &
 3/4                  2/2              3/2
  Q   S  S  S  S E E   E E E E Q.   E   E  E E  E  Q   E S  S E  Q   E
|-----0--0--0--0-----|----------------|---------------------------------|
|-----0--0--0--0-----|----------------|---------------------------------|
|-----8--8--8--8-----|----------------|---------------------------------|
|----10-10-10-10-----|----------------|---------------10-9h10p9---------|
|-----9--9--9--9-----|-6-7-6-7-9------|-9-10-9-10-12------------12--10--|
|-----7--7--7--7---7-|--------------8-|---------------------------------|


 2/2
   +E  E  E  E  +E   E  E  E
|---------0--0--(0)--0--0--0-|
|---------0--0--(0)--0--0--0-|
|--------10-10-(10)-10-10-10-|
|------9---------------------|
|-(10)-----------------------|
|----------------------------|


                   |-3--|  |-3--|
   E S  S  E S  S  E  E E  E  E E    Q   E E +Q    E  E
|--0------------------------------|----------------------|
|--0------------------------------|--------0-(0)---------|
|-10------------------------------|--------0-(0)---------|
|------------9-10-12-10-9---------|--------9-(9)---------|
|----9-10-12--------------12-10-9-|-----10---------------|
|---------------------------------|-12------------12-10--|


   +E  Q   E  +E   E  Q    Q  E E +E  Q  E
|------------------------|-----------------|
|----------0--(0)--0-----|------0-(0)-0--0-|
|----------0--(0)--0-----|------0-(0)-0--0-|
|---------10-(10)-10-----|------9-(9)-9--7-|
|------9-----------------|----7----------6-|
|-(10)---------------10--|-8-------------7-|


       |3| |3| |3|   |3| |3| |3| |3|
  +Q   Q E Q E Q E   Q E Q E Q E Q E
|------------------|-----------------|
|-(0)--------------|-----------------|
|-(0)--------------|-----------------|
|-(7)--------------|-----------------|
|-(6)--2-2-3-3-6-6-|-7-7-2-2-3-3-6-6-|
|-(7)--------------|-----------------|


  |3| |3| |3| |3|    |3-| |3| |3| |3|
  Q E Q E Q E Q E    Q  E Q E Q E Q E   S S S S S S S S  S S S S S S S S
|-----------------|-------------------|-------0-------0--------0-------0--|
|-----------------|-------------------|-----0-------0--------0-------0----|
|-----------------|-------------------|---0-------0--------0-------0------|
|-----------------|-------------------|--------------------------7--------|
|-7-7-6-6-7-7-9-9-|-10-10-9-9-7-7-6-6-|-7-------9-------10----------------|
|-----------------|-------------------|-0---------------------------------|


  S S S S  S S S S S S S S Q    +S  S S S S S S S  S S S S S S S S
|-------0--------0-------0----|---------0-------0--------0-------0--|
|-----0--------0-------0------|-------0-------0--------0-------0----|
|---0--------0-------0--------|-----0-------0--------0-------0------|
|-9-------10-------9----------|----------------------------7--------|
|--------------------------7--|-(7)-------9-------10----------------|
|--------------------------0--|-(0)---------------------------------|


  S S S S S S S S  S S S S Q    +S  S S S S S S S  S S S S S S S S
|-------0-------0--------0----|---------0-------0--------0-------0--|
|-----0-------0--------0------|-------0-------0--------0-------0----|
|---0-------0--------0--------|-----0-------0--------0-------0------|
|-9-------7-------------------|-------------------------------------|
|-----------------10-------7--|-(7)-------9-------10-------9--------|
|--------------------------0--|-(0)---------------------------------|


  S S S S S S S S S S S S S S S S   S S S S S S S S S S S S S S S S
|-------0-------0-------0-------0-|-------0-------0-------0-------0---|
|-----0-------0-------0-------0---|-----0-------0-------0-------0-----|
|---0-------0-------0-------0-----|---0-------0-------0-------0-------|
|---------------------------------|-----------------------------------|
|-7-------6-------3-------2-------|-0---------------------------------|
|---------------------------------|---------3-------2-------3---------|


                        |-3-| |-3-| |-3-|
  Q  +Q   Q.   E   +Q   E E E E E E E E E
|----------------|------7-7-7-7-7-7-7-7-7-|
|----------------|------0-0-0-0-0-0-0-0-0-|
|---------2----0-|-(0)--0-0-0-0-0-0-0-0-0-|
|---------1----2-|-(2)--7-7-7-7-7-7-7-7-7-|
|---------2----2-|-(2)--6-6-6-6-6-6-6-6-6-|
|-0--(0)--2----0-|-(0)--7-7-7-7-7-7-7-7-7-|


  E E Q  E E  E  E    +Q    +Q    +Q    +Q
|-7----------12-12-|-(12)--(12)--(12)--(12)---*|
|-0----------12-12-|-(12)--(12)--(12)--(12)---*|
|-0----------12-12-|-(12)--(12)--(12)--(12)---*|
|-7----------14-14-|-(14)--(14)--(14)--(14)---*|
|-6----------14-14-|-(14)--(14)--(14)--(14)---*|
|-7------0---12-12-|-(12)--(12)--(12)--(12)---*|


Duration Legend
---------------
W - whole; H - half; Q - quarter; E - 8th; S - 16th; T - 32nd; X - 64th; a - acciaccatura
+ - note tied to previous; . - note dotted; .. - note double dotted
Uncapitalized letters represent notes that are staccato (1/2 duration)
Irregular groupings are notated above the duration line
Duration letters will always appear directly above the note/fret number it represents the
duration for.  Duration letters with no fret number below them represent rests.  Multi-
bar rests are notated in the form Wxn, where n is the number of bars to rest for.  Low
melody durations appear below the staff

Tablature Legend
----------------
 h   - hammer-on
 p   - pull-off
 b   - bend
 pb  - pre-bend
 r   - bend release (if no number after the r, then release immediately)
 /\  - slide into or out of (from/to "nowhere")
 s   - legato slide
 S   - shift slide
  - natural harmonic
[n]  - artificial harmonic
n(n) - tapped harmonic
 ~   - vibrato
 tr  - trill
 T   - tap
 TP  - trem. picking
 PM  - palm muting
\n/  - tremolo bar dip; n = amount to dip
 \n  - tremolo bar down
 n/  - tremolo bar up
/n\  - tremolo bar inverted dip
 =   - hold bend; also acts as connecting device for hammers/pulls
 <>  - volume swell (louder/softer)
 x   - on rhythm slash represents muted slash
 o   - on rhythm slash represents single note slash

Misc Legend
-----------
 |  - bar
||  - double bar
||o - repeat start
o|| - repeat end
*|  - double bar (ending)
 :  - bar (freetime)
 $  - Segno
 &  - Coda
Tempo markers -  = BPM(8/16=s8/s16), where s8 = swing 8ths, s16 = swing 16ths
Suggest correction new What's this?
You can suggest a correction to this tab. Community and Mods will review your correction and vote to approve or reject it.
comments
print report bad tab
1 comment total.
0 reply
franky01 137 wrote on February 20 2010, 12:11 am

Thanks, been waiting for a tab for this song forever.

guest
You may want to rate the tab now too:
select rating
Please do not post tabs as comments. Select "correction" instead!