Oops, an error
Loading. Please wait.

Ara O Mai Tab

362 views 1 this week
1 commentread comment
1 2 3 4 5
please rate
add to favorites
launch autoscroll
font size
0
reset
how to read this tab
guitar tuner
Autoscroll
slow
fast
+/-
esc
set tempo
stop
Help us to improve Ultimate-Guitar.com Take our survey!
×
Author
-------------------------------------------------------------------------------
                         Ara o Mai - Lax'n'busto
-------------------------------------------------------------------------------
Àlbum: Relax
Tabulat per: Ricard Solà
E-mail, comentaris i possibles errors a: riki_calaf@hotmail.com

M'he animat a tabular una altra cançó del nou cd.
A veure si us agrada.

Intro


e|--------------------------------------------------------------------------|
B|---------------------------------------------------------8--8-8-8-8-8-8---|
G|--7-7-7--9--10--9-----7-7-7--9--10--9-----7-7-7--9--10--------------------|
D|---------------------------------------------------------5--5-5-5-5-5-5---|
A|--5-5-5--7--8---7-----5-5-5--7--8---7-----5-5-5--7--8---------------------|
E|--------------------------------------------------------------------------|

e|--------------------------------------------------------------------------|
B|--8-8-8--10-11--10----6-6-6--8--10----------------------------------------|
G|--------------------------------------9-9--10-9--7--7-7-7-7-7-7-7-7-------|
D|--5-5-5--7--8---7-----3-3-3--5--7-----------------------------------------|
A|--------------------------------------7-7--8--7--5--5-5-5-5-5-5-5-5-------|
E|--------------------------------------------------------------------------|

Vers 1

    Sents      que      és        el      moment
e|---------------------------------------------------------------------------|
B|---------------------------------------------------------------------------|
G|--7-7-7-7--7-7-7-7--7-7-7-7--7-7-7-7---------------------------------------|
D|----------------------------------------7-7-7-7--7-7-7-7--7-7-7-7--7-7-7-7-|
A|--5-5-5-5--5-5-5-5--5-5-5-5--5-5-5-5---------------------------------------|
E|----------------------------------------5-5-5-5--5-5-5-5--5-5-5-5--5-5-5-5-|

 Han passat   els     pitjors       temps
e|--------------------------------------------------------------------------|
B|--------------------------------------------------------------------------|
G|---------------------------------------5-5-5-5--5-5-5-5--5-5-5-5--5-5-5-5-|
D|-3-3-3-3--3-3-3-3--3-3-3-3--3-3-3-3---------------------------------------|
A|---------------------------------------3-3-3-3--3-3-3-3--3-3-3-3--3-3-3-3-|
E|-1-1-1-1--1-1-1-1--1-1-1-1--1-1-1-1---------------------------------------|

    Tens la millor defensa,
e|--------------------------------------|
B|--------------------------------------|
G|--------------------------------------|
D|--5-5-5-5--5-5-5-5--5-5-5-5--5-5-5-5--|
A|--------------------------------------|
E|--3-3-3-3--3-3-3-3--3-3-3-3--3-3-3-3--|

has patit tants cops l´ofensa
e|--------------------------------------|
B|--------------------------------------|
G|--7-7-7-7--7-7-7-7--7-7-7-7--7-7-7-7--|
D|--------------------------------------|
A|--5-5-5-5--5-5-5-5--5-5-5-5--5-5-5-5--|
E|--------------------------------------|

que t´has fet fort i dur com un roc.
e|--------------------------------------------------------------------------|
B|--------------------------------------------------------------------------|
G|--------------------------------10-9--7-7-7-7--7-7-7-7--7-7-7-7--7-7-7-7--|
D|-7-7-7-7--7-7-7-7--7-7-7-7--(7)-------------------------------------------|
A|--------------------------------8--7--5-5-5-5--5-5-5-5--5-5-5-5--5-5-5-5--|
E|-5-5-5-5--5-5-5-5--5-5-5-5--(5)-------------------------------------------|

Vers 2 (Igual que el primer però amb algunes variacions)

Vius aquest moment,
e|--------------------------------------------------------------------------|
B|--------------------------------------------------------------------------|
G|-7-7-7-7--7-7-7-7--7-7-7-7--(7)-9-10--------------------------------------|
D|--------------------------------------7-7-7-7--7-7-7-7--7-7-7-7--7-7-7-7--|
A|-5-5-5-5--5-5-5-5--5-5-5-5--(5)-7-8---------------------------------------|
E|--------------------------------------5-5-5-5--5-5-5-5--5-5-5-5--5-5-5-5--|

el futur, per a l´altra gent.
e|--------------------------------------------------------------------------|
B|--------------------------------------------------------------------------|
G|-------------------------------------5-5-5-5--5-5-5-5--5-5-5-5--5-5-5-5---|
D|-3-3-3--5--7--1--1-1-1-5-(5)-7-(7)----------------------------------------|
A|-------------------------------------3-3-3-3--3-3-3-3--3-3-3-3--3-3-3-3---|
E|-1-1-1--3--5--1--1-1-1-3-(3)-5-(5)----------------------------------------|

Ara faràs la teva, recte sense distreure´t
e|-------------------------------------------------------|
B|-------------------------------------------------------|
G|----------------------7-7-7--9--10-7--7-7-7--7-7-7-7---|
D|-5--7-8-5--5-5-7--8------------------------------------|
A|----------------------5-5-5--7--8--5--5-5-5--5-5-5-5---|
E|-3--5-6-3--3-3-5--6------------------------------------|

Sense ajuts, sense plors, sense laments.
e|--------------------------------------------------------------------------|
B|--------------------------------------------------------------------------|
G|--------------------------------10-9--7-7-7-7--7-7-7-7--7-7-7-7--7-7-7-7--|
D|-7-7-7-7--7-7-7-7--7-7-7-7--(7)-------------------------------------------|
A|--------------------------------8--7--5-5-5-5--5-5-5-5--5-5-5-5--5-5-5-5--|
E|-5-5-5-5--5-5-5-5--5-5-5-5--(5)-------------------------------------------|


Sol5                      La5
Qui ha perdut sap què és guanyar.


Tornada

Re5  Sol5   Do5        Fa'5 Mi'5
Ara o mai viuràs sense cap mentida

Re5  Sol5     La5
Ara o mai que la vida és aquest neguit que estira.

Re5  Sol5   Do5      Fa'5 Mi'5
Cap parany et farà girar l´esquena.

Re5   Sol5  La5
Ara o mai com va ser i com tornarà a ser sempre.

Sib5              Mi5              La5
Sense feblesa amb la ment encesa i a punt...
Ara o mai.

Repetició Intro


Vers 3 (Pausa al principi, però igual que el 2n)

Fart d´impediments
de retrets que et tanquen més.
Una sola barrera és la que podràs admetre.
Una sola manera, un sol camí.


Sol5                      La5
Si has perdut sap què és guanyar.


Tornada

Re5  Sol5   Do5        Fa'5 Mi'5
Ara o mai viuràs sense cap mentida

Re5  Sol5     La5
Ara o mai que la vida és aquest neguit que estira.

Re5  Sol5   Do5      Fa'5 Mi'5
Cap parany et farà girar l´esquena.

Re5   Sol5  La5
Ara o mai com va ser i com tornarà a ser sempre.


Solo Guitarra                                                              x2
e|--------------------------------------------------------------------------------|
B|---------------------------------------------5-----5------------------5---------|
G|-----3------3------------------3-------------5-----5--7-5--7b8--7-5---5-----5--*|
D|-----3------3--5-3--5b6--5-3---3---3-5---6/7---6/7------------------7---5-7----*|
A|-4/5----4/5------------------5---5----------------------------------------------|
E|--------------------------------------------------------------------------------|

2n Solo
e|------------10----------10----------10----------10----------10----------10------|
B|---------10----------10----------10----------10----------10----------10---------|
G|--12b14--------12b14-------12b14-------12b14-------12b14-------12b14------------|
D|--------------------------------------------------------------------------------|
A|--------------------------------------------------------------------------------|
E|--------------------------------------------------------------------------------|

e|----------10----------10---13b15b13-10-----------------------------------------------|
B|-------10----------10------------------13b15b13-10--------10-----8------10----11-----|
G|-12b14-------12b14---------------------------------12-10--12b14--10b12--12b14-13b15--|
D|-------------------------------------------------------------------------------------|
A|-------------------------------------------------------------------------------------|
E|-------------------------------------------------------------------------------------|

e|-------------------------------|
B|-10--8-10---8-10-8-10-8-10-----|
G|-9---9-9----9-9--9-9--9-9------|
D|-------------------------------|
A|-------------------------------|
E|-------------------------------|


Re5  Sol5   Do5        Fa'5 Mi'5
Ara o mai viuràs sense cap mentida

Re5  Sol5     La5
Ara o mai que la vida és aquest neguit que estira.

Re5  Sol5   Do5      Fa'5 Mi'5
Cap parany et farà girar l´esquena.

Re5   Sol5  La5
Ara o mai com va ser i com tornarà a ser sempre.


Sib5              Mi5              La5    [Sol5 La5] x5
Sense feblesa amb la ment encesa i a punt...

Re5
Ara o mai.


Comentaris i Consells
-----------------------

Per tocar les octaves de la intro i de l'acompanyament del 1r vers, podeu fer
servir els dits 1 (índex) i 4 (petit). I s'ha de rascar com si fos un acord,
però la corda del mig ha de quedar mutejada amb el 1r dit (deixant-lo a la
suficient alçada xk la corda del mig hi piqui i no soni).
Amb pràctica tot és fa!

Els acords que tenen un 5, només significa que són de 5ena, són els típics
acords de sajeta que segur que tots coneixeu.
Ex:
           Do5    La5    Sol5     etc..
      e|-------------------------|
      B|-------------------------|
      G|----5--------------------|
      D|----5------7------5------|
      A|----3------7------5------|
      E|-----------5------3------|

Els acords que tenen un ' al costat, l'he posat per indicar que són aguts.
És a dir:
   Fa'5   Mi'5   En comptes de -->  Fa5  Mi5
e|----------------------------------------------|
B|----------------------------------------------|
G|--10-----9------------------------------------|
D|--10-----9-------------------------3----2-----|
A|--8------7-------------------------3----2-----|
E|-----------------------------------1----0-----|


Nomenclatura de solo, pels més atrevits/des ;)
b --> bending   :   12b14  --> estirar la nota 12 fins que soni com la 14--|
/ --> slide     :   4/5    ------------------------------------------------| 
fer lliscar la nota 4 fins a la 5 (sense
   picar-la amb la pua)


Em penso que no em deixo res.
Gràcies a tots/es els interesats que seguiu les tabulatures i visca els Lax!
Suggest correction
Give kudos to tab author, rate the tab!
1 2 3 4 5
comments
print report bad tab
1 comment total.
0 reply
-Aurinko- 46 wrote on December 4 2015, 07:40 am

Gràcies!

guest
You may want to rate the tab now too:
select rating
Please do not post tabs as comments. Select "correction" instead!