Oops, an error
Loading. Please wait.

Im No Superman Tab

version 1
version 1

Solo

Whole song

Interactive

9,171 views 3 this week
no commentswrite comment
1 2 3 4 5
please rate
add to favorites
launch autoscroll
font size
0
reset
how to read this tab
guitar tuner
Autoscroll
slow
fast
+/-
esc
set tempo
stop
Help us to improve Ultimate-Guitar.com Take our survey!
×
Author
Difficulty
intermediate
~-Vibrato
b-Bend

		Lazlo Bane - Superman Solo
						Standard Tuning



	(2:05-2:10)
e|-----------------------------------------|
B|-11-11-11-11-11-11-11-11-11-11-11-9------|
G|-11-13-15-13-11-13-15-13-11-13-11-11-11~-|
D|-------------------------------------10~-|
A|-----------------------------------------|
E|-----------------------------------------|


	(2:11-2:14)
e|----------------------|
B|-9-9--9---------------|
G|-8-11-8---------------|
D|-------11-9-----------|
A|-----------11-9--9----|
E|---------------11-11-9|


  (2:14-2:17)
e|----9-6----|
B|-7---------|
G|-9b----9b-6|
D|-----------|
A|-----------|
E|-----------|

(2:17-2:18)
e|-------|
B|/19-19-|
G|/18-18-|
D|-------|
A|-------|
E|-------|
Suggest correction
Give kudos to tab author, rate the tab!
1 2 3 4 5
comments
print report bad tab
guest
You may want to rate the tab now too:
select rating
Please do not post tabs as comments. Select "correction" instead!