Oops, an error
Loading. Please wait.

Im No Superman tab

version 1
version 1

Whole song

Interactive

13,037 views 6 this week
1 commentread comment
1 2 3 4 5
x 3
add to favorites
×
Save as Personal and add changes to this tab that will be seen only by you. Learn more ›
×
You can save this tab as Personal to edit and correct it or add notes. All changes will be seen only by you. Learn more »
launch autoscroll
font size
0
reset
how to read this tab
guitar tuner
edit
Autoscroll
slow
fast
+/-
esc
set tempo
stop
Author
-------------------------------------------------------------------------------
                        Im No Superman - Lazlo Bane
-------------------------------------------------------------------------------

This is a way to play the banjo part. I have adjusted how it is played on five
string banjo to guitar.

Tuning: Open Gb: Db Gb Db Gb Bb Db

4/4 time

Main riff: listen to the song for timing.
Db|-5----5----5----4-----|-5---5-----7/9-7-5h7-|-----------------------------|
Bb|--------0----0----0---|-------0-------------|-----------------------------|
Gb|---0------0----0----0-|---0-----0-----------|-----------------------------|
Db|----------------------|---------------------|-----------------------------|
Gb|----------------------|---------------------|-----------------------------|
Db|----------------------|---------------------|-----------------------------|

Verse: this is harder to hear, but it is there, and I have played along with it before 
make sure it is right. Play slowly and smoothly.

    Abm          Gb           Abm        Gb
Db|-------2------0-----0------------2----0----0-------------------------------|
Bb|-1h3p1---1------0-----0----1h3p1---1----0----0-----------------------------|
Gb|-0---------2------0-----0--0---------2----0----0---------------------------|
Db|---------------------------------------------------------------------------|
Gb|---------------------------------------------------------------------------|
Db|---------------------------------------------------------------------------|

   Ebm                                Ab
Db|---2-----2-----2----2-----2-----2-|---2-----2-----2-5-2-----2-----2---------|
Bb|-----0-----0----------0-----0-----|-----2-----2---------2-----2-------------|
Gb|-------0-----0----------0-----0---|-------2-----2---------2-----2-----------|
Db|-2----------------2---------------|-2---------------------------------------|
Gb|----------------------------------|-----------------------------------------|
Db|----------------------------------|-----------------------------------------|

   Cb               Db
Db|---2-----2-----0--4-|-------------------------------------------------------|
Bb|-----1-----1------3-|-------------------------------------------------------|
Gb|-------0-----0----2-|-------------------------------------------------------|
Db|-2----------------0-|-------------------------------------------------------|
Gb|--------------------|-------------------------------------------------------|
Db|--------------------|-------------------------------------------------------|


            
            
Suggest correction
Creating personal tab
Creating personal tab
You can edit any tab online and save it as your Personal.

You can edit, replace or remove any tab part or add personal notes – all changes will be seen only by you.

Personal tabs can be accessed anytime from any device, even offline.
Learn more »
Give kudos to tab author, rate the tab!
1 2 3 4 5
comments
print report bad tab
1 comment total.
-2 reply
challenger666 10 Oct 20, 2015 07:27 AM

fuck this shit asdas dad a sd ad as d a dada sd a ad az xc zc zs ad as

guest
You may want to rate the tab now too:
select rating
Wanna post a correction for this tab? Suggest correction