Oops, an error
Loading. Please wait.

Superman Tab

version 3
version 3

Whole song

Interactive

Video

1,139 views 3 this week
no commentswrite comment
1 2 3 4 5
3 more votes to show rating
add to favorites
launch autoscroll
font size
0
reset
how to read this tab
guitar tuner
Autoscroll
slow
fast
+/-
esc
set tempo
stop
Help us to improve Ultimate-Guitar.com Take our survey!
×
Author
Difficulty
Tuning
intermediate
D G C F A D
to me its the best way to play this song

http://www.youtube.com/watch?v=skwZmImiTlQ
D tuning
(DAdghe)
Capo:4th

verse:
e-2-2-222-2-0----0--0--0- -0--------------|
h-3-3-333-2-0----7--0--0- -0--------------|
g-2-2-222-2-0-0--0--0--7- -7--------------|
d-------------7--7--7--7/0----------------|
A-------------5--5--5--5- ----------------|
D------------------------ ----------------|

chorus:
e--------   -----------------------------------|
h------2-   --3---2--------2-------------------|
g------2-2x --4---2--------2-------------------|
d------2-   --4---2--------2-------------------|
A--2---0-   --2---0--2-----0-------------------|
D--2-----   ---------2-------------------------|

        //verse
Out the door just in time
Head down the 405
Gotta meet the new boss by 8 am

The phone rings in the car
The wife is working hard
She's running late tonight again

Well
             //chorus
I know what I've been told
You gotta work to feed the soul
But I can't do this all on my own
No, I know I'm no Superman
             //verse
I'm no Superman

You've got your love online
You think you're doing fine
But you're just plugged into the wall

And that deck of tarot cards
Won't get you very far
There ain't no hand to break your fall

Well
         //chorus
I know what I've been told
You gotta know just when to fold
But I can't do this all on my own
No, I know I'm no Superman
             //verse
I'm no Superman

That's right
== harmonica solo ==

           //verse
You've crossed the finish line
Won the race but lost your mind
Was it worth it after all

I need you here with me
Cause love is all we need
Just take a hold of the hand that breaks the fall
       //chorus
Well I know what I've been told
Gotta break free to break the mold
But I can't do this all on my own
No I can't do this all on my own
I know that I'm no Superman
       // verse
I'm no Superman

Someday we'll be together
Someday, someday
Someday we'll be together
Someday
I'm no Superman
Suggest correction
Give kudos to tab author, rate the tab!
1 2 3 4 5
comments
print report bad tab
guest
You may want to rate the tab now too:
select rating
Wanna post a correction for this tab? Suggest correction