Oops, an error
Loading. Please wait.
We have Chord Pro version of We Are Number One.
It's the closest thing you can get to the original song and it has interactive parts. Check out the tab »
×

We Are Number One bass

version 1
version 1

Whole song

  • You can hear the official piano and bass track on ... Show more

Interactive

2,143 views 12 this week
no commentswrite comment
1 2 3 4 5
x 5
add to favorites
×
Save as Personal and add changes to this tab that will be seen only by you. Learn more ›
×
You can save this tab as Personal to edit and correct it or add notes. All changes will be seen only by you. Learn more »
launch autoscroll
font size
0
reset
guitar tuner
edit
Autoscroll
slow
fast
+/-
esc
set tempo
stop
Author
Difficulty
About this tab version
You can hear the official piano and bass track on soundcloud /user-847444/we-are-number-one-bass. Was this info helpful? Yes No
[Chorus]

"HEY!"
G|---------------|---------------|---------------|---------------|
D|---------------|---------------|-----3---6---3-|-----5---2-----|
A|---------3-----|---------3-----|-4-------------|-3-----------3-| x2
E|-1---4-------4-|-1---4-------4-|---------------|---------------|

   PM---------------------------|
G|---------------|---------------|
D|---------------|---------------|
A|---------3-----|--------4-3----|
E|-1---4-------4-|-1---4------4-3|


[Verse]

"Here's a little lesson in trickery..."
G|---------------|---------------|---------------|---------------|
D|---------------|---------------|-----3---6---3-|-----5---2-----|
A|---------3-----|---------3-----|-4-------------|-3-----------3-| x2
E|-1---4-------4-|-1---4-------4-|---------------|---------------|

[Pause]

"Just follow my moves"
G|-------------|---------------|-----------------|---------------|
D|-------3-3---|---------5---5-|-----3-6-6-------|---------------|
A|-1---4-----1-|-3-3-3-6-------|-4---------4---6-|---------------|
E|-------------|---------------|-----------------|---------------|


[Pre-Chorus]

G|-------------|
D|-6---5---4---|
A|-------------|
E|-------------|


[Chorus]

G|---------------|---------------|---------------|---------------|
D|---------------|---------------|-----3---6---3-|---------------|
A|---------3-----|---------3-----|-4-------------|-3-------------|
E|-1---4-------4-|-1---4-------4-|---------------|---------------|

G|---------------|---------------|---------------|---------------|
D|---------------|---------------|-----3---6---3-|-----5---2-----|
A|---------3-----|---------3-----|-4-------------|-3-----------3-|
E|-1---4-------4-|-1---4-------4-|---------------|---------------|

G|-----------------|
D|-----------0-1-2-|
A|-0-1-2-3-4-------|
E|-----------------|

G|---------------|---------------|---------------|---------------|
D|---------------|---------------|-----3---6---3-|-----5---2-----|
A|---------3-----|---------3-----|-4-------------|-3-----------3-|
E|-1---4-------4-|-1---4-------4-|---------------|---------------|


[Verse]

"Now look at this net..."
G|---------------|---------------|---------------|---------------|
D|---------------|---------------|-----3---6---3-|-----5---2-----|
A|---------3-----|---------3-----|-4-------------|-3-----------3-|
E|-1---4-------4-|-1---4-------4-|---------------|---------------|

[Pause]

"Now watch and learn, here's the deal..."
G|---------------|---------------|---------------|---------------|
D|---------------|---------------|-----3---6---3-|-----5---2-----|
A|---------3-----|---------3-----|-4-------------|-3-----------3-|
E|-1---4-------4-|-1---4-------4-|---------------|---------------|

[Pause]


[Pre-Chorus]
G|-------------|
D|-6---5---4---|
A|-------------|
E|-------------|

[Long Pause]


[Chorus]
(Half step up)
G|---------------|---------------|---------------|---------------|
D|---------------|---------------|-----4---7---4-|-----6---3-----|
A|---------4-----|---------4-----|-5-------------|-4-----------4-| x3
E|-2---5-------5-|-2---5-------5-|---------------|---------------|

G|---------------|---------------|---------------|---------------|---------------|---------------|
D|---------------|---------------|-----4---7---4-|---------------|---------------|---------------|
A|---------4-----|---------4-----|-5-------------|-4-4-4-4-4-----|-4-4-4-4-4-----|-4-------4-----|
E|-2---5-------5-|-2---5-------5-|---------------|---------------|---------------|-------------2-|

            
            
Suggest correction
Creating personal tab
Creating personal tab
You can edit any tab online and save it as your Personal.

You can edit, replace or remove any tab part or add personal notes – all changes will be seen only by you.

Personal tabs can be accessed anytime from any device, even offline.
Learn more »
comments
print report bad tab
guest
You may want to rate the tab now too:
select rating
Wanna post a correction for this tab? Suggest correction