Oops, an error
Loading. Please wait.

We Are Number One Tab

version 1
version 1

Intro

  • Bass-like tune. Bottom strings. Captures brass jazzy feel of original.

Whole song

  • There is a guitar part (the saxophone played in th... Show more
  • ver 3 new
    Tab for not only the intro, but also all of the ly... Show more

Interactive

71,887 views 2,850 this week
12 commentsread comments
1 2 3 4 5
x 78
add to favorites
launch autoscroll
font size
0
reset
how to read this tab
guitar tuner
Autoscroll
slow
fast
+/-
esc
set tempo
stop
Help us to improve Ultimate-Guitar.com Take our survey!
×
Author
Difficulty
Tuning
novice
E A D G B E
About this tab version
Bass-like tune. Bottom strings. Captures brass jazzy feel of original.
If you haven't already, please donate to Stefan Karl's (The Actor Who Plays Robbie Rotten) cancer fund. He is
in desperate need of our help. https://www.gofundme.com/2tm9tqk

Without further ado, look at this guitar tab, that I just found!!

[Intro/Chorus]

e|---------------------------------------------------------------------------|
B|---------------------------------------------------------------------------|
G|---------------------------------------------------------------------------|
D|---------------------------------------------------------------------------|
A|-------3-2h3-3p2h3-----------3-4-------6---4---3h4p3h4p3-------------------|
E|-1----------------4-1---1/4-------4----------------------------------------|

[Verse 1]

e|---------------------------------------------------------------------------|
B|---------------------------------------------------------------------------|
G|---------------------------------------------------------------------------|
D|---------------------------------------------------------------------------|
A|----------------------------------3---3-4-4-4-4-4-4-6-4--3h4p3-------------|
E|--4--4--3--1---4--4--3--1---4--1-------------------------------------------|

[Interlude]

e|--------------------------|
B|--------------------------|
G|--------------------------|
D|--------------------------|
A|--1-1-1--3-3-3--4-4-4-6---|
E|--------------------------|


 h =  Hammer-on
 p =  Pull-off
 / =  Slide up
Suggest correction
comments
print report bad tab
12 comments total. Showing first comments.
+35 reply
Jeb_Bush 10 Nov 03, 2016 01:35 AM

you make me a moist boy

+8 reply
mcprowill1 31 Dec 11, 2016 08:01 PM

*ejaculates*

+4 reply
vai-vana89 20 Dec 12, 2016 05:09 AM

dank.. super dank

guest
You may want to rate the tab now too:
select rating
Wanna post a correction for this tab? Suggest correction