Oops, an error
Loading. Please wait.

We Are Number One Tab

version 1
version 1

Intro

  • Bass-like tune. Bottom strings. Captures brass jazzy feel of original.

Whole song

  • There is a guitar part (the saxophone played in th... Show more
  • Tab for not only the intro, but also all of the ly... Show more

Interactive

101,290 views 1,311 this week
16 commentsread comments
1 2 3 4 5
x 108
add to favorites
×
Save as Personal and add changes to this tab that will be seen only by you. Learn more ›
launch autoscroll
font size
0
reset
how to read this tab
guitar tuner
Autoscroll
slow
fast
+/-
esc
set tempo
stop
Author
Difficulty
About this tab version
Bass-like tune. Bottom strings. Captures brass jazzy feel of original.
If you haven't already, please donate to Stefan Karl's (The Actor Who Plays Robbie Rotten) cancer fund. He is
in desperate need of our help. https://www.gofundme.com/2tm9tqk

Without further ado, look at this guitar tab, that I just found!!

[Intro/Chorus]

e|---------------------------------------------------------------------------|
B|---------------------------------------------------------------------------|
G|---------------------------------------------------------------------------|
D|---------------------------------------------------------------------------|
A|-------3-2h3-3p2h3-----------3-4-------4---6---3h4p3h4p3-------------------|
E|-1----------------4-1---1/4-------4----------------------------------------|

e|---------------------------------------------------------------------------|
B|---------------------------------------------------------------------------|
G|---------------------------------------------------------------------------|
D|---------------------------------------------------------------------------|
A|-------3-2h3-3p2h3-----------3-4-------6---4---3h4p3h4p3-------------------|
E|-1----------------4-1---1/4-------4----------------------------------------|

[Verse 1]

e|---------------------------------------------------------------------------|
B|---------------------------------------------------------------------------|
G|---------------------------------------------------------------------------|
D|---------------------------------------------------------------------------|
A|----------------------------------3---3-4-4-4-4-4-4-6-4--3h4p3-------------|
E|--4--4--3--1---4--4--3--1---4--1-------------------------------------------|

[Interlude]

e|--------------------------|
B|--------------------------|
G|--------------------------|
D|--------------------------|
A|--1-1-1--3-3-3--4-4-4-6---|
E|--------------------------|


 h =  Hammer-on
 p =  Pull-off
 / =  Slide up
Suggest correction
comments
print report bad tab
16 comments total. Showing first comments.
+50 reply
Jeb_Bush 10 Nov 02, 2016 09:35 PM

you make me a moist boy

+19 reply
mcprowill1 31 Dec 11, 2016 03:01 PM

*ejaculates*

+13 reply
vai-vana89 20 Dec 12, 2016 12:09 AM

dank.. super dank

guest
You may want to rate the tab now too:
select rating
Wanna post a correction for this tab? Suggest correction