Oops, an error
Loading. Please wait.

We Are Number One Tab

version 1
version 1

Whole song

Interactive

322 views 129 this week
no commentswrite comment
1 2 3 4 5
2 more votes to show rating
add to favorites
launch autoscroll
font size
0
reset
how to read this tab
guitar tuner
Autoscroll
slow
fast
+/-
esc
set tempo
stop
Help us to improve Ultimate-Guitar.com Take our survey!
×
Author
Difficulty
novice
[Saxophone Intro]
e|-------------8---7-8-7-8-7---8---|-----------------------------8---|
B|-6-------------------------------|-9-------6-----------6---9-------|
G|---------------------------------|---------------------------------|
D|---------------------------------|---------------------------------|
A|---------------------------------|---------------------------------|
E|---------------------------------|---------------------------------|

e|-9---------------9-------11------|-8---9---8---9---8---------------|
B|---------9-----------------------|---------------------------------|
G|---------------------------------|---------------------------------|
D|---------------------------------|---------------------------------|
A|---------------------------------|---------------------------------|
E|---------------------------------|---------------------------------|

[Chorus]
e|-x---8---x---8---x---8---x---8---|-x---8---x---8---x---8---x---8---|
B|-x---9---x---9---x---9---x---9---|-x---9---x---9---x---9---x---9---|
G|-x---10--x---10--x---10--x---10--|-x---10--x---10--x---10--x---10--|
D|-x---10--x---10--x---10--x---10--|-x---10--x---10--x---10--x---10--|
A|-x---8---x---8---x---8---x---8---|-x---8---x---8---x---8---x---8---|
E|-x---8---x---8---x---8---x---8---|-x---8---x---8---x---8---x---8---|

e|-x---4---x---4---x---4---x---4---|-x---8---x---8---x---8---x---8---|
B|-x---6---x---6---x---6---x---6---|-x---8---x---8---x---8---x---8---|
G|-x---6---x---6---x---6---x---6---|-x---9---x---9---x---9---x---9---|
D|-x---6---x---6---x---6---x---6---|-x---10--x---10--x---10--x---10--|
A|-x---4---x---4---x---4---x---4---|-x---10--x---10--x---10--x---10--|
E|-x---4---x---4---x---4---x---4---|-x---8---x---8---x---8---x---8---|

e|-x---8---x---8---x---8---x---8---|-x---8---x---8---x---8---x---8---|
B|-x---9---x---9---x---9---x---9---|-x---9---x---9---x---9---x---9---|
G|-x---10--x---10--x---10--x---10--|-x---10--x---10--x---10--x---10--|
D|-x---10--x---10--x---10--x---10--|-x---10--x---10--x---10--x---10--|
A|-x---8---x---8---x---8---x---8---|-x---8---x---8---x---8---x---8---|
E|-x---8---x---8---x---8---x---8---|-x---8---x---8---x---8---x---8---|

e|-x---4---x---4---x---4---x---4---|-x---8---x---8---x---8---x---8---|
B|-x---6---x---6---x---6---x---6---|-x---8---x---8---x---8---x---8---|
G|-x---6---x---6---x---6---x---6---|-x---9---x---9---x---9---x---9---|
D|-x---6---x---6---x---6---x---6---|-x---10--x---10--x---10--x---10--|
A|-x---4---x---4---x---4---x---4---|-x---10--x---10--x---10--x---10--|
E|-x---4---x---4---x---4---x---4---|-x---8---x---8---x---8---x---8---|

[Verse]
e|-x---8---x---8---x---8---x---8---|-x---8---x---8---x---8---x---8---|
B|-x---9---x---9---x---9---x---9---|-x---9---x---9---x---9---x---9---|
G|-x---10--x---10--x---10--x---10--|-x---10--x---10--x---10--x---10--|
D|-x---10--x---10--x---10--x---10--|-x---10--x---10--x---10--x---10--|
A|-x---8---x---8---x---8---x---8---|-x---8---x---8---x---8---x---8---|
E|-x---8---x---8---x---8---x---8---|-x---8---x---8---x---8---x---8---|

e|-x---4---x---4---x---4---x---4---|-x---8---x---8---x---8---x---8---|
B|-x---6---x---6---x---6---x---6---|-x---8---x---8---x---8---x---8---|
G|-x---6---x---6---x---6---x---6---|-x---9---x---9---x---9---x---9---|
D|-x---6---x---6---x---6---x---6---|-x---10--x---10--x---10--x---10--|
A|-x---4---x---4---x---4---x---4---|-x---10--x---10--x---10--x---10--|
E|-x---4---x---4---x---4---x---4---|-x---8---x---8---x---8---x---8---|

e|-x---8---x---8---x---8---x---8---|-x---8---x---8---x---8---x---8---|
B|-x---9---x---9---x---9---x---9---|-x---9---x---9---x---9---x---9---|
G|-x---10--x---10--x---10--x---10--|-x---10--x---10--x---10--x---10--|
D|-x---10--x---10--x---10--x---10--|-x---10--x---10--x---10--x---10--|
A|-x---8---x---8---x---8---x---8---|-x---8---x---8---x---8---x---8---|
E|-x---8---x---8---x---8---x---8---|-x---8---x---8---x---8---x---8---|

e|-x---4---x---4---x---4---x---4---|-x---8---x---8---x---8---x---8---|
B|-x---6---x---6---x---6---x---6---|-x---8---x---8---x---8---x---8---|
G|-x---6---x---6---x---6---x---6---|-x---9---x---9---x---9---x---9---|
D|-x---6---x---6---x---6---x---6---|-x---10--x---10--x---10--x---10--|
A|-x---4---x---4---x---4---x---4---|-x---10--x---10--x---10--x---10--|
E|-x---4---x---4---x---4---x---4---|-x---8---x---8---x---8---x---8---|

e|-x-------4---4---x-------4-------|-x-------3---3---x-------3-------|
B|-x-------6---6---x-------6-------|-x-------4---4---x-------4-------|
G|-x-------6---6---x-------6-------|-x-------5---5---x-------5-------|
D|-x-------6---6---x-------6-------|-x-------5---5---x-------5-------|
A|-x-------4---4---x-------4-------|-x-------3---3---x-------3-------|
E|-x-------4---4---x-------4-------|-x-------3---3---x-------3-------|

e|-x-------9---9---x-------9-------|-6-------------------------------|
B|-x-------9---9---x-------9-------|-8-------------------------------|
G|-x-------10--10--x-------10------|-8-------------------------------|
D|-x-------11--11--x-------11------|-8-------------------------------|
A|-x-------11--11--x-------11------|-6-------------------------------|
E|-x-------9---9---x-------9-------|-6-------------------------------|

[Chorus]
e|-x---8---x---8---x---8---x---8---|-x---8---x---8---x---8---x---8---|
B|-x---9---x---9---x---9---x---9---|-x---9---x---9---x---9---x---9---|
G|-x---10--x---10--x---10--x---10--|-x---10--x---10--x---10--x---10--|
D|-x---10--x---10--x---10--x---10--|-x---10--x---10--x---10--x---10--|
A|-x---8---x---8---x---8---x---8---|-x---8---x---8---x---8---x---8---|
E|-x---8---x---8---x---8---x---8---|-x---8---x---8---x---8---x---8---|

e|-x---4---x---4---x---4---x---4---|---------------------------------|
B|-x---6---x---6---x---6---x---6---|---------------------------------|
G|-x---6---x---6---x---6---x---6---|---------------------------------|
D|-x---6---x---6---x---6---x---6---|---------------------------------|
A|-x---4---x---4---x---4---x---4---|---------------------------------|
E|-x---4---x---4---x---4---x---4---|---------------------------------|

e|-x---8---x---8---x---8---x---8---|-x---8---x---8---x---8---x---8---|
B|-x---9---x---9---x---9---x---9---|-x---9---x---9---x---9---x---9---|
G|-x---10--x---10--x---10--x---10--|-x---10--x---10--x---10--x---10--|
D|-x---10--x---10--x---10--x---10--|-x---10--x---10--x---10--x---10--|
A|-x---8---x---8---x---8---x---8---|-x---8---x---8---x---8---x---8---|
E|-x---8---x---8---x---8---x---8---|-x---8---x---8---x---8---x---8---|

e|-x---4---x---4---x---4---x---4---|-x---8---x---8---x---8---x---8---|
B|-x---6---x---6---x---6---x---6---|-x---8---x---8---x---8---x---8---|
G|-x---6---x---6---x---6---x---6---|-x---9---x---9---x---9---x---9---|
D|-x---6---x---6---x---6---x---6---|-x---10--x---10--x---10--x---10--|
A|-x---4---x---4---x---4---x---4---|-x---10--x---10--x---10--x---10--|
E|-x---4---x---4---x---4---x---4---|-x---8---x---8---x---8---x---8---|

e|-x---8---x---8---x---8---x---8---|-x---8---x---8---x---8---x---8---|
B|-x---9---x---9---x---9---x---9---|-x---9---x---9---x---9---x---9---|
G|-x---10--x---10--x---10--x---10--|-x---10--x---10--x---10--x---10--|
D|-x---10--x---10--x---10--x---10--|-x---10--x---10--x---10--x---10--|
A|-x---8---x---8---x---8---x---8---|-x---8---x---8---x---8---x---8---|
E|-x---8---x---8---x---8---x---8---|-x---8---x---8---x---8---x---8---|

e|-x---4---x---4---x---4---x---4---|-x---8---x---8---x---8---x---8---|
B|-x---6---x---6---x---6---x---6---|-x---8---x---8---x---8---x---8---|
G|-x---6---x---6---x---6---x---6---|-x---9---x---9---x---9---x---9---|
D|-x---6---x---6---x---6---x---6---|-x---10--x---10--x---10--x---10--|
A|-x---4---x---4---x---4---x---4---|-x---10--x---10--x---10--x---10--|
E|-x---4---x---4---x---4---x---4---|-x---8---x---8---x---8---x---8---|

[Verse]
e|-x---8---x---8---x---8---x---8---|-x---8---x---8---x---8---x---8---|
B|-x---9---x---9---x---9---x---9---|-x---9---x---9---x---9---x---9---|
G|-x---10--x---10--x---10--x---10--|-x---10--x---10--x---10--x---10--|
D|-x---10--x---10--x---10--x---10--|-x---10--x---10--x---10--x---10--|
A|-x---8---x---8---x---8---x---8---|-x---8---x---8---x---8---x---8---|
E|-x---8---x---8---x---8---x---8---|-x---8---x---8---x---8---x---8---|

e|-x---4---x---4---x---4---x---4---|-x---8---x---8---x---8---x---8---|
B|-x---6---x---6---x---6---x---6---|-x---8---x---8---x---8---x---8---|
G|-x---6---x---6---x---6---x---6---|-x---9---x---9---x---9---x---9---|
D|-x---6---x---6---x---6---x---6---|-x---10--x---10--x---10--x---10--|
A|-x---4---x---4---x---4---x---4---|-x---10--x---10--x---10--x---10--|
E|-x---4---x---4---x---4---x---4---|-x---8---x---8---x---8---x---8---|

[Interlude]
e|-x---8---x---8---x---8---x---8---|-x---8---x---8---x---8---x---8---|
B|-x---9---x---9---x---9---x---9---|-x---9---x---9---x---9---x---9---|
G|-x---10--x---10--x---10--x---10--|-x---10--x---10--x---10--x---10--|
D|-x---10--x---10--x---10--x---10--|-x---10--x---10--x---10--x---10--|
A|-x---8---x---8---x---8---x---8---|-x---8---x---8---x---8---x---8---|
E|-x---8---x---8---x---8---x---8---|-x---8---x---8---x---8---x---8---|

e|-x---4---x---4---x---4---x---4---|-x---8---x---8---x---8---x---8---|
B|-x---6---x---6---x---6---x---6---|-x---8---x---8---x---8---x---8---|
G|-x---6---x---6---x---6---x---6---|-x---9---x---9---x---9---x---9---|
D|-x---6---x---6---x---6---x---6---|-x---10--x---10--x---10--x---10--|
A|-x---4---x---4---x---4---x---4---|-x---10--x---10--x---10--x---10--|
E|-x---4---x---4---x---4---x---4---|-x---8---x---8---x---8---x---8---|

e|-x---8---x---8---x---8---x---8---|-x---8---x---8---x---8---x---8---|
B|-x---9---x---9---x---9---x---9---|-x---9---x---9---x---9---x---9---|
G|-x---10--x---10--x---10--x---10--|-x---10--x---10--x---10--x---10--|
D|-x---10--x---10--x---10--x---10--|-x---10--x---10--x---10--x---10--|
A|-x---8---x---8---x---8---x---8---|-x---8---x---8---x---8---x---8---|
E|-x---8---x---8---x---8---x---8---|-x---8---x---8---x---8---x---8---|

e|-x---4---x---4---x---4---x---4---|---------------------------------|
B|-x---6---x---6---x---6---x---6---|---------------------------------|
G|-x---6---x---6---x---6---x---6---|---------------------------------|
D|-x---6---x---6---x---6---x---6---|---------------------------------|
A|-x---4---x---4---x---4---x---4---|---------------------------------|
E|-x---4---x---4---x---4---x---4---|---------------------------------|

[Chorus]
e|-x---8---x---8---x---8---x---8---|-x---8---x---8---x---8---x---8---|
B|-x---9---x---9---x---9---x---9---|-x---9---x---9---x---9---x---9---|
G|-x---10--x---10--x---10--x---10--|-x---10--x---10--x---10--x---10--|
D|-x---10--x---10--x---10--x---10--|-x---10--x---10--x---10--x---10--|
A|-x---8---x---8---x---8---x---8---|-x---8---x---8---x---8---x---8---|
E|-x---8---x---8---x---8---x---8---|-x---8---x---8---x---8---x---8---|

e|-x---4---x---4---x---4---x---4---|-x---8---x---8---x---8---x---8---|
B|-x---6---x---6---x---6---x---6---|-x---8---x---8---x---8---x---8---|
G|-x---6---x---6---x---6---x---6---|-x---9---x---9---x---9---x---9---|
D|-x---6---x---6---x---6---x---6---|-x---10--x---10--x---10--x---10--|
A|-x---4---x---4---x---4---x---4---|-x---10--x---10--x---10--x---10--|
E|-x---4---x---4---x---4---x---4---|-x---8---x---8---x---8---x---8---|

e|-x---8---x---8---x---8---x---8---|-x---8---x---8---x---8---x---8---|
B|-x---9---x---9---x---9---x---9---|-x---9---x---9---x---9---x---9---|
G|-x---10--x---10--x---10--x---10--|-x---10--x---10--x---10--x---10--|
D|-x---10--x---10--x---10--x---10--|-x---10--x---10--x---10--x---10--|
A|-x---8---x---8---x---8---x---8---|-x---8---x---8---x---8---x---8---|
E|-x---8---x---8---x---8---x---8---|-x---8---x---8---x---8---x---8---|

e|-x---4---x---4---x---4---x---4---|-x---8---x---8---x---8---x---8---|
B|-x---6---x---6---x---6---x---6---|-x---8---x---8---x---8---x---8---|
G|-x---6---x---6---x---6---x---6---|-x---9---x---9---x---9---x---9---|
D|-x---6---x---6---x---6---x---6---|-x---10--x---10--x---10--x---10--|
A|-x---4---x---4---x---4---x---4---|-x---10--x---10--x---10--x---10--|
E|-x---4---x---4---x---4---x---4---|-x---8---x---8---x---8---x---8---|

[Higher tune]
e|-x---9---x---9---x---9---x---9---|-x---9---x---9---x---9---x---9---|
B|-x---10--x---10--x---10--x---10--|-x---10--x---10--x---10--x---10--|
G|-x---11--x---11--x---11--x---11--|-x---11--x---11--x---11--x---11--|
D|-x---11--x---11--x---11--x---11--|-x---11--x---11--x---11--x---11--|
A|-x---9---x---9---x---9---x---9---|-x---9---x---9---x---9---x---9---|
E|-x---9---x---9---x---9---x---9---|-x---9---x---9---x---9---x---9---|

e|-x---5---x---5---x---5---x---5---|-x---9---x---9---x---9---x---9---|
B|-x---7---x---7---x---7---x---7---|-x---9---x---9---x---9---x---9---|
G|-x---7---x---7---x---7---x---7---|-x---10--x---10--x---10--x---10--|
D|-x---7---x---7---x---7---x---7---|-x---11--x---11--x---11--x---11--|
A|-x---5---x---5---x---5---x---5---|-x---11--x---11--x---11--x---11--|
E|-x---5---x---5---x---5---x---5---|-x---9---x---9---x---9---x---9---|

e|-x---9---x---9---x---9---x---9---|-x---9---x---9---x---9---x---9---|
B|-x---10--x---10--x---10--x---10--|-x---10--x---10--x---10--x---10--|
G|-x---11--x---11--x---11--x---11--|-x---11--x---11--x---11--x---11--|
D|-x---11--x---11--x---11--x---11--|-x---11--x---11--x---11--x---11--|
A|-x---9---x---9---x---9---x---9---|-x---9---x---9---x---9---x---9---|
E|-x---9---x---9---x---9---x---9---|-x---9---x---9---x---9---x---9---|

e|-x---5---x---5---x---5---x---5---|-x---9---x---9---x---9---x---9---|
B|-x---7---x---7---x---7---x---7---|-x---9---x---9---x---9---x---9---|
G|-x---7---x---7---x---7---x---7---|-x---10--x---10--x---10--x---10--|
D|-x---7---x---7---x---7---x---7---|-x---11--x---11--x---11--x---11--|
A|-x---5---x---5---x---5---x---5---|-x---11--x---11--x---11--x---11--|
E|-x---5---x---5---x---5---x---5---|-x---9---x---9---x---9---x---9---|

e|-x---9---x---9---x---9---x---9---|-x---9---x---9---x---9---x---9---|
B|-x---10--x---10--x---10--x---10--|-x---10--x---10--x---10--x---10--|
G|-x---11--x---11--x---11--x---11--|-x---11--x---11--x---11--x---11--|
D|-x---11--x---11--x---11--x---11--|-x---11--x---11--x---11--x---11--|
A|-x---9---x---9---x---9---x---9---|-x---9---x---9---x---9---x---9---|
E|-x---9---x---9---x---9---x---9---|-x---9---x---9---x---9---x---9---|

e|-x---5---x---5---x---5---x---5---|-x---9---x---9---x---9---x---9---|
B|-x---7---x---7---x---7---x---7---|-x---9---x---9---x---9---x---9---|
G|-x---7---x---7---x---7---x---7---|-x---10--x---10--x---10--x---10--|
D|-x---7---x---7---x---7---x---7---|-x---11--x---11--x---11--x---11--|
A|-x---5---x---5---x---5---x---5---|-x---11--x---11--x---11--x---11--|
E|-x---5---x---5---x---5---x---5---|-x---9---x---9---x---9---x---9---|

e|-x---9---x---9---x---9---x---9---|-x---9---x---9---x---9---x---9---|
B|-x---10--x---10--x---10--x---10--|-x---10--x---10--x---10--x---10--|
G|-x---11--x---11--x---11--x---11--|-x---11--x---11--x---11--x---11--|
D|-x---11--x---11--x---11--x---11--|-x---11--x---11--x---11--x---11--|
A|-x---9---x---9---x---9---x---9---|-x---9---x---9---x---9---x---9---|
E|-x---9---x---9---x---9---x---9---|-x---9---x---9---x---9---x---9---|

e|-x---5---x---5---x---5---x---5---|-x---9---x---9---x---9---x---9---|
B|-x---7---x---7---x---7---x---7---|-x---9---x---9---x---9---x---9---|
G|-x---7---x---7---x---7---x---7---|-x---10--x---10--x---10--x---10--|
D|-x---7---x---7---x---7---x---7---|-x---11--x---11--x---11--x---11--|
A|-x---5---x---5---x---5---x---5---|-x---11--x---11--x---11--x---11--|
E|-x---5---x---5---x---5---x---5---|-x---9---x---9---x---9---x---9---|

[Outro]
e|-x---9---x---9---x---9---x---9---|
B|-x---9---x---9---x---9---x---9---|
G|-x---10--x---10--x---10--x---10--|
D|-x---11--x---11--x---11--x---11--|
A|-x---11--x---11--x---11--x---11--|
E|-x---9---x---9---x---9---x---9---|

***********************************
| x Dead note
***********************************
Suggest correction
Give kudos to tab author, rate the tab!
1 2 3 4 5
comments
print report bad tab
guest
You may want to rate the tab now too:
select rating
Wanna post a correction for this tab? Suggest correction