Oops, an error
Loading. Please wait.
We have Chord Pro version of We Are Number One.
It's the closest thing you can get to the original song and it has interactive parts. Check out the tab »
×

We Are Number One tab

version 3
version 3

Whole song

  • There is a guitar part (the saxophone played in th... Show more
  • Tab for not only the intro, but also all of the ly... Show more

Interactive

1,204 views 96 this week
1 commentread comment
1 2 3 4 5
x 5
add to favorites
×
Save as Personal and add changes to this tab that will be seen only by you. Learn more ›
×
You can save this tab as Personal to edit and correct it or add notes. All changes will be seen only by you. Learn more »
launch autoscroll
font size
0
reset
how to read this tab
guitar tuner
edit
Autoscroll
slow
fast
+/-
esc
set tempo
stop
Author
Difficulty
About this tab version
Tab for not only the intro, but also all of the lyrics. A fingerstyle-esque version. Was this info helpful? Yes No
Song: We Are Number One
Artist: Robbie Rotten (LazyTown)
Tuning: Standard (EADGBe)
Tabbed by: LordPiesaac


[Intro]
e|---------------------------------------------------------------------------|
B|---------------------------------------------------------------------------|
G|---------------------------------------------------------------------------|
D|---------------------------------------------------------------------------|
A|-------3-2-3-3-2-3-----------3-4------4/6------3-4-3-4-3-------------------|
E|-1----------------4-1---1/4-------4----------------------------------------|
                                                 We are Number One

e|---------------------------------------------------------------------------|
B|---------------------------------------------------------------------------|
G|---------------------------------------------------------------------------|
D|---------------------------------------------------------------------------|
A|-------3-2-3-3-2-3-----------3-4-------6---4---3-4-3-4-3-------------------|
E|-1----------------4-1---1/4-------4----------------------------------------|
                                                 We are Number One
[Verse 1]
e|---------------------------------------------------------------------------|
B|---------------------------------------------------------------------------|
G|---------------------------------------------------------------------------|
D|---------------------------------------------------------------------------|
A|---------------------3---4-4-4-4-4/6--3-4-3--------------------------------|
E|--1-1-1-1-1-1--1-4-1-------------------------------------------------------|

 Here's a little lesson in trickery, this is going down in history

e|---------------------------------------------------------------------------|
B|---------------------------------------------------------------------------|
G|---------------------------------------------------------------------------|
D|---------------------------------------------------------------------------|
A|---------------------3---4-4-4-4-4/6-6-3-4-3-------------------------------|
E|--1-1-1-1-1-1--1-4-1-------------------------------------------------------|

 If you wanna be a villain number 1. you have to chase a superhero on the run

e|---------------------------------------------------------------------------|
B|---------------------------------------------------------------------------|
G|---------------------------------------------------------------------------|
D|---------------------------------------------------------------------------|
A|---1-1-1-1-1---1-3--3-3----4-4-4-4-4-4--6--8-------------------------------|
E|---------------------------------------------------------------------------|

 Just follow my moves and sneak around, be careful not to make a sound!

e|---------------------------------------------------------------------------|
B|---------------------------------------------------------------------------|
G|---------------------------------------------------------------------------|
D|---------------------------------------------------------------------------|
A|---------------------------------------------------------------------------|
E|----/9---4--6--1------------------------6---4--3---------------------------|

 Oh! Don't touch that!

[Interlude]
e|---------------------------------------------------------------------------|
B|---------------------------------------------------------------------------|
G|---------------------------------------------------------------------------|
D|---------------------------------------------------------------------------|
A|-------3-2-3-3-2-3-----------3-4------4/6------3-4-3-4-3-------------------|
E|-1----------------4-1---1/4-------4----------------------------------------|
                                                 We are Number One
e|---------------------------------------------------------------------------|
B|---------------------------------------------------------------------------|
G|---------------------------------------------------------------------------|
D|---------------------------------------------------------------------------|
A|-------3-2-3-3-2-3-----------3-4------4/6------3-4-3-4-3---------3/9-------|
E|-1----------------4-1---1/4-------4----------------------------------------|
                                                 We are Number One

e|---------------------------------------------------------------------------|
B|---------------------------------------------------------------------------|
G|---------------------------------------------------------------------------|
D|---------------------------------------------------------------------------|
A|-------3-2-3-3-2-3-----------3-4------4/6------3-4-3-4-3-------------------|
E|-1----------------4-1---1/4-------4----------------------------------------|
                                                 We are Number One

e|---------------------------------------------------------------------------|
B|---------------------------------------------------------------------------|
G|---------------------------------------------------------------------------|
D|---------------------------------------------------------------------------|
A|--------------1-1-1-1-1---1-3--1-3----3-3-1---1-3-1------------------------|
E|---5-4-3----------------------------------------------5--6--5--4--1--------|

 Ha, ha, ha!    Now look at this net, that I just found. When I say "go", be ready to throw.

e|---------------------------------------------------------------------------|
B|---------------------------------------------------------------------------|
G|---------------------------------------------------------------------------|
D|---------------------------------------------------------------------------|
A|---4---6-6-4-6--3--4-------------------------------------------------------|
E|-----------------------------6---1--4-1-4-1--------------------------------|

 Go!   Throw it at him, not me! Ugh, let's try something else.

e|---------------------------------------------------------------------------|
B|---------------------------------------------------------------------------|
G|---------------------------------------------------------------------------|
D|---------------------------------------------------------------------------|
A|-------------------3----3-4--3-4--3-4-3-4-3-4--------7--6--5---/12---------|
E|---4--1--1-1---4--1--------------------------------------------------------|

 Now, watch and learn, here's the deal: he'll slip n slide on this banana peel-- HA! HA!
HA-- *gasp*

e|---------------------------------------------------------------------------|
B|---------------------------------------------------------------------------|
G|---------------------------------------------------------------------------|
D|---------------------------------------------------------------------------|
A|----9-9-9--11-10-----------------------------------------------------------|
E|----------------------------------------6---4--3---------------------------|

 WHAT ARE YOU DOING?!

[Interlude]
e|---------------------------------------------------------------------------|
B|---------------------------------------------------------------------------|
G|---------------------------------------------------------------------------|
D|---------------------------------------------------------------------------|
A|-------3-2-3-3-2-3-----------3-4------4/6------3-4-3-4-3-------------------|
E|-1----------------4-1---1/4-------4----------------------------------------|

e|---------------------------------------------------------------------------|
B|---------------------------------------------------------------------------|
G|---------------------------------------------------------------------------|
D|---------------------------------------------------------------------------|
A|-------3-2-3-3-2-3-----------3-4-------6---4---3-4-3-4-3-------------------|
E|-1----------------4-1---1/4-------4----------------------------------------|

[Outro]
e|---------------------------------------------------------------------------|
B|---------------------------------------------------------------------------|
G|---------------------------------------------------------------------------|
D|---------------------------------------------------------------------------|
A|-------4-3-4-3-4-3-----------4-5------5/7------4-5-4-5-4-------------------|
E|----2--------------5---2/5-------5-----------------------------------------|

                                                 We are number one!

e|---------------------------------------------------------------------------|
B|---------------------------------------------------------------------------|
G|---------------------------------------------------------------------------|
D|---------------------------------------------------------------------------|
A|-------4-3-4-3-4-3-----------4-5------7-5------4-5-4-5-4---4-5-4-5-4-------|
E|----2--------------5---2/5-------5-----------------------------------------|


                                                 We are number one! We are number one!


e|---------------------------------------------------------------------------|
B|---------------------------------------------------------------------------|
G|---------------------------------------------------------------------------|
D|---------------------------------------------------------------------------|
A|---4-5-4-5-4---------------------------------------------------------------|
E|-------------------5---2---------------------------------------------------|

 We are number one-- Hey! Hey!


************************************

| /  Slide up

************************************
Suggest correction
Creating personal tab
Creating personal tab
You can edit any tab online and save it as your Personal.

You can edit, replace or remove any tab part or add personal notes – all changes will be seen only by you.

Personal tabs can be accessed anytime from any device, even offline.
Learn more »
comments
print report bad tab
1 comment total.
0 reply
brrascon 10 2 days ago

Hey! Can anyone on UG please create a tab for LazyTown Forever please?

guest
You may want to rate the tab now too:
select rating
Wanna post a correction for this tab? Suggest correction