Oops, an error
Loading. Please wait.

Army Of Helaman tab

by Lds
2,502 views 6 this week
4 commentsread comments
1 2 3 4 5
x 13
add to favorites
×
Save as Personal and add changes to this tab that will be seen only by you. Learn more ›
×
You can save this tab as Personal to edit and correct it or add notes. All changes will be seen only by you. Learn more »
launch autoscroll
font size
0
reset
how to read this tab
guitar tuner
edit
Autoscroll
slow
fast
+/-
esc
set tempo
stop
Author
I was looking for this tab but could not find it and other people have been to. So 
I made one my self and it sounds pretty good.

Tuning:Standard

e|---------------------------------------------------------------------------|
B|--0-1-3-3-1-3-5-3-3-8-8-7-3-3-5-3-1-3--------------------------------------|
G|-0-------------------------------------------------------------------------|
D|---------------------------------------------------------------------------|
A|---------------------------------------------------------------------------|
E|---------------------------------------------------------------------------|

e|---------------------------------------------------------------------------|
B|--0-1-3-3-1-3-5-3-3-8-8-8-3-0----------------------------------------------|
G|-0----------------------------2-0-0----------------------------------------|
D|---------------------------------------------------------------------------|
A|---------------------------------------------------------------------------|
E|---------------------------------------------------------------------------|

e|-----------------------------------------------------------------------------------|
B|-0h1h2h3-5-5-7-7-8-3-1-0-----5-5-5-5-1-0------5-5-7-7-8-3-1-0--------1-0-----------|
G|-------------------------2-0-------------2--0-----------------2-0--0-----2-0-2-0---|
D|-----------------------------------------------------------------------------------|
A|-----------------------------------------------------------------------------------|
E|-----------------------------------------------------------------------------------|

            
            
Suggest correction
Creating personal tab
Creating personal tab
You can edit any tab online and save it as your Personal.

You can edit, replace or remove any tab part or add personal notes – all changes will be seen only by you.

Personal tabs can be accessed anytime from any device, even offline.
Learn more »
comments
print report bad tab
4 comments total. Showing first comments.
+1 reply
apollo11joe 42 Jan 19, 2014 02:11 PM

Good job! This sounds awesome! I think its awesome that us mormons can out our music on here.

0 reply
jerome1232 10 Feb 07, 2014 07:57 AM

Jump to the high e string instead of sticking to b string on frets 5 and higher.

ie the first line becomes:

e|------------0---3-3-2---0-----
B|-0-1-3-3-1-3-3-3-----3-3-3-1-3
G|0-----------------------------
D|------------------------------
A|------------------------------
E|------------------------------

0 reply
stocktonhyer99 10 Jun 01, 2015 08:45 AM

I do like the e string on better

guest
You may want to rate the tab now too:
select rating
Wanna post a correction for this tab? Suggest correction