Oops, an error
Loading. Please wait.

Come Come Ye Saints tab

103 views 12 this week
no commentswrite comment
1 2 3 4 5
3 more votes to show rating
add to favorites
×
Save as Personal and add changes to this tab that will be seen only by you. Learn more ›
×
You can save this tab as Personal to edit and correct it or add notes. All changes will be seen only by you. Learn more »
launch autoscroll
font size
0
reset
how to read this tab
guitar tuner
edit
Autoscroll
slow
fast
+/-
esc
set tempo
stop
Title: Come, Come, Ye Saints
Words: William Clayton, 1814-1879
Music: English folk song
Copyright: The Church of Jesus Christ of Latter-Day Saints
Tabber: MJ Hufford (2014)
Tempo = 98
Classical Guitar

E|----------------------------|----------------------------|
B|----------------------------|--------------3-------------|
G|-----------0L----------0----|-----------0-----0----------|
D|--------4-------------------|--------4-----------4-------|
A|-----0----------------------|-----0-----------------0----|
D|--0-------------------------|--0-------------------------|

E|----------------------------|----------------------------|
B|----------------------------|--------------3-------------|
G|-----------0L----------0----|-----------0-----0----------|
D|--------4-------------------|--------4-----------4-------|
A|-----0----------------------|-----0-----------------0----|
D|--0-------------------------|--0-------------------------|

E|----------------------------|----------------|
B|--3-----------3--------5----|--7--------3----|
G|-----------0----------------|----------------|
D|--4-----4-----4-----4--5----|--7--------4----|
A|-----0-----------0----------|----------------|
D|--0-------------------------|--0-------------|

E|----------------------------------------------------|-------|
B|--2-----------3-----------5-----------------7-------|--8----|
G|----------------------------------------------------|-------|
D|--2-----2s-4--------------5-----------5s-7--7-------|--9----|
A|--0-----------------0-------------------------------|--10---|
D|----------------------------------------------------|-------|

E|----------------------------|----------------------------|
B|--7--------3--5L------------|--5-----------3--------2----|
G|----------------------------|----------------------------|
D|--7--------4--5L------------|--5-----------4--------2----|
A|--------0L-0--0L------------|--0-----------0L-------0----|
D|--0-------------------------|----------------------------|

E|----------------------------|----------------------------|
B|--3-------------------------|--------------3-------------|
G|-----------0L----------0----|-----------0-----0----------|
D|--4-----4-------------------|--------4-----------4-------|
A|-----0----------------------|-----0-----------------0----|
D|--0-------------------------|--0-------------------------|

E|----------------------------|----------------|
B|--3-----------3--------5----|--7--------3----|
G|-----------0----------------|----------------|
D|--4-----4-----4-----4--5----|--7--------4----|
A|-----0-----------0----------|----------------|
D|--0--------------------0L---|--0-------------|

E|----------------------------------------------------|
B|--2-----------3-----------5-----------------7-------|
G|----------------------------------------------------|
D|--2-----2s-4--------------5-----------5s-7--7-------|
A|--0-----------------0-------------------------------|
D|----------------------------------------------------|

E|----------------------------|----------------------------|
B|--8L----------8-------------|--7--------3--5L------------|
G|----------------------------|----------------------------|
D|--9L----------9-------------|--7--------4--5L------------|
A|--10L---------10------------|--------0L-0--0L------------|
D|-----------------------0L---|--0-------------------------|

E|----------------------------|----------------------------|
B|--5-----------5-------------|--3--------2--3-------------|
G|-----------0-----0----------|-----------------------0----|
D|--5-----4-----------4-------|--4--------2--4-----4-------|
A|--0--0-----------------0----|--0L-------0-----0----------|
D|----------------------------|--------------0L-0L-0L-0L---|

E|----------------------------|--------------5-----5-------|
B|--3-------------------------|--7--------8--7-----7-------|
G|-----0-----------------0----|--7--------7--7-----6-------|
D|--------4-----------4-------|----------------------------|
A|-----------0-----0----------|----------------------------|
D|--0-----------0-------------|--------------0-------------|

E|--5L----------------------------------5h----7h-5--------------------------------|
B|--7--------------------------------------------------8-----------------------7--|
G|--5-----------------------------------------------------------------------------|
D|--------------------------------------------------------------------------------|
A|--------------------------------------------------------------------------------|
D|--------------------------------------------------------------------------------|

E|--------------------|----------------------------------------------------|
B|--------------------|--8-----------8-----------8-----------------10-8----|
G|--------------------|--6-----------9-----------7-------------------------|
D|--------------------|--7-----------7-----------7-------------------------|
A|--------------------|--0L----------0-----------0-------------------------|
D|--------------------|----------------------------------------------------|

E|----------------------------|----------------|----------------|
B|--7--------5--7-----7-------|--10----8--7----|--5--5--5L------|
G|--6-------------------------|--11----9-------|-----7--6L------|
D|--7--------5--7-----7-------|-----------7----|--7--7--7L------|
A|--0--------0----------------|-----------0----|--0-------------|
D|--------------0-------------|----------------|----------------|

E|----------------------------|----------------------------|
B|--5--------3--------2--3----|-----------3----------------|
G|--6-------------------------|--------0-----0L-0L-0L-0L---|
D|--7-----4s----------2--4----|-----4-----------4----------|
A|----------------------------|--0-----------------0-------|
D|-----------------------0----|-----------------------0----|

E|-----------------------5L---|--5----|----------------------------|----------|
B|-----5-----7--------8--3L---|--3----|--7--------3--5L------------|--5--3----|
G|--0L-0L----0L-------0--2L---|--2----|----------------------------|----------|
D|-----5-----7--------9--4L---|--4----|--7--------4--5L------------|--5--4----|
A|--0--------------------2L---|--2----|--------------0L------------|--0--0L---|
D|----------------------------|-------|--0--------0--x-------------|----------|

E|----------------------------|----------------------------|
B|-----2s-------3-------------|--------------------3-------|
G|----------------------------|-----------------0-----0----|
D|--2L-2----------------------|--------0h-2s-4-------------|
A|--0L-0----------------------|-----0----------------------|
D|----------------------------|--0-------------------------|

E|--0h-2L----------------------------------2----------|
B|--3L-3L----------------------------------3----------|
G|--0h-2L----------------------------------2----------|
D|--4L-4L----------------------------------4----------|
A|--0L-0L----------------------------------0----------|
D|--0L-0L----------------------------------0----------|

**********************************************************************

| L - tied note
| x - dead note
| h - hammer on/pull off
| b - bend
| s - slide
| ~ - vibrato
| g - ghost note
| > - accentuated note
| t - trill
| M - palm mute
| . - staccato
| P - popping (bass)
| S - slapping (bass)
| + - tapping
| W - wide vibrato
| < - fade in
| w - whammy bar
| = - tremolo picking
| v - brush up
| ^ - brush down
| V - pick stroke up
| n - pick stroke down

**********************************************************************
Suggest correction
Creating personal tab
Creating personal tab
You can edit any tab online and save it as your Personal.

You can edit, replace or remove any tab part or add personal notes – all changes will be seen only by you.

Personal tabs can be accessed anytime from any device, even offline.
Learn more »
Give kudos to tab author, rate the tab!
1 2 3 4 5
comments
print report bad tab
guest
You may want to rate the tab now too:
select rating
Wanna post a correction for this tab? Suggest correction