Oops, an error
Loading. Please wait.

Gioco Di Bimba Chords

version 2
version 2

Whole song

  • Complete version with arpeggio for intro.

Interactive

7 views 1 this week
no commentswrite comment
1 2 3 4 5
3 more votes to show rating
add to favorites
launch autoscroll
font size
0
reset
transpose
0
reset
display chords
guitar tuner
Autoscroll
slow
fast
+/-
esc
set tempo
stop
Help us to improve Ultimate-Guitar.com Take our survey!
×
Author
Difficulty
novice
About this tab version
Complete version with arpeggio for intro. Was this info helpful? Yes No
[Intro]
    A         A        D    A      D     E    A 

E|------------------0-----------0------------------|
B|------0-2----0-2----3-2-0--------2-3-------------|
G|---2------2--------------2-----------1---1-2-----|
D|----------------------------------------4--------|
A|-------------------------------------------------|
E|-------------------------------------------------|

[Verse]
A        E             A       E 
Come d'incanto lei si alza di notte
  A           E             A             E 
cammina in silenzio con gli occhi ancor chiusi
A       E         A      E 
come seguisse un magico canto
  A        E      A          E 
e sull'altalena ritorna a sognare

  
     Bm     D     E    Bm         A           E 

E|----2-0-------------------0---1-0-----------------|
B|--------3-2-0---------0-2---------3-2-0---0-2-0---|
G|-------------2---1-2-------------------2----------|
D|----------------2---------------------------------|
A|--------------------------------------------------|
E|--------------------------------------------------|

[Verse]
  A         E         A        E 
La lunga vestaglia il volto di latte
  A        E        A        E 
i raggi di luna sui folti capelli.
    A        E         A            E 
La statua di cera s'allunga tra i fiori
  A        E       A         E 
Folletti gelosi la stanno a spiare.

  Bm      D     E      Bm       A            E 

[Verse]
N.C.
Dondola, dondola il vento la spinge
N.C.
cattura le stelle per i suoi desideri.
N.C.
Un'ombra furtiva si stacca dal muro
N.C.
nel gioco di bimba si perde una donna.

A      E     A     E  

[Verse]
   A           E       A            E 
Un grido al mattino in mezzo alla strada,
   A       E       A           E 
un uomo di pezza invoca il suo sarto,
    A        E         A       E 
con voce smarrita per sempre ripete
 A        E        A           E 
"io non volevo svegliarla così",
  A        E        A          E 
"io non volevo svegliarla così".

[Outro]
     Bm   D   E    Bm    D   E 
Suggest correction
Give kudos to tab author, rate the tab!
1 2 3 4 5
comments
print report bad tab
guest
You may want to rate the tab now too:
select rating
Wanna post a correction for this tab? Suggest correction