Oops, an error
Loading. Please wait.

Dedicato A Te Chords

version 2
version 2

Whole song

Interactive

61 views 1 this week
no commentswrite comment
1 2 3 4 5
3 more votes to show rating
add to favorites
launch autoscroll
font size
0
reset
transpose
0
reset
simplify chords
display chords
guitar tuner
Autoscroll
slow
fast
+/-
esc
set tempo
stop
Help us to improve Ultimate-Guitar.com Take our survey!
×
Author
Difficulty
intermediate
[INTRO]:
  [Am]                    [Am7+]                  [Am7]
e|----------0----------0--|----------0----------0--|----------0-------------|
B|---------------0--------|---------------0--------|------------------------|
G|-------5----------------|-------5----------------|-------5-------5-----5--|
D|--7---------------7-----|--6---------------6-----|--5---------------7-----|
A|------------------------|------------------------|------------------------|
E|------------------------|------------------------|------------------------|

[Am6]                  [Dm]       [Dsus2]       [Dm]
------------0-----------|-----------------------|----------------------|
------------------0-----|----------6-------5----|------6---------------|
-------5-------5-----5--|-------7-------7-------|-----------7-------7--|
--4---------------------|--0--------------------|----------------0-----|
------------------------|-----------------------|----------------------|
------------------------|-----------------------|----------------------|

[E7]
-----------------0----|
----------0------0----|
-------7---------7----|
--6--------------6----|
----------------------|
----------------------|


Am      Am7+         Am7
Sai certe volte accade che
        Am6           Dm    Dsus2 Dm
ci sia bisogno di andar via 
    E
e lasciare tutto al fato

Am      Am7+         Am7
Fare come un equilibrista
        Am6           Dm    Dsus2 Dm
che sul mondo sfida il crollo
     E
delle sue capacità

[CHORUS]:
C         G/B         Am
Ma questo è dedicato a te
    G           F
alla tua lucente armonia
      G                 C
sei immensamente Giuli___a
     G/B         Am
Il tuo nome è come musica
     G               F
mi riempie e non mi stanca mai
    E
dedicato solo a te

[INTRO] (x2) (Giulia_____)

Am      Am7+         Am7
Ma chiudi gli occhi e aspetta che
        Am6           Dm        Dsus2 Dm
arrivi la mia bocca ad allietarti
     E
chissà dove chissà come___

Am      Am7+         Am7
Vorrei fermare il tempo per
     Am6         Dm     Dsus2 Dm
godere delle tue fantasie
           E
e ascoltare senza interruzioni

[CHORUS]:
C         G/B         Am
Ma questo è dedicato a te
    G           F
alla tua lucente armonia
      G                 C
sei immensamente Giuli___a
     G/B         Am
Il tuo nome è come musica
     G               F
mi riempie e non mi stanca mai
    E
dedicato solo a te

[INTRO] (x2)

Dm     G
Respira piano e ascolta... 


C         G/B         Am
che, questo è dedicato a te
    G           F
alla tua lucente armonia
      G                 C
sei immensamente Giuli___a
     G/B         Am
Il tuo nome è come musica
     G               F
mi riempie e non mi stanca mai
      G                 C
sei immensamente Giuli___a

STRUMENTALE ([DO][SOL/SI][Am][SOL][FA])

      G                 C
sei immensamente Giuli___a
     G/B         Am
Il tuo nome è come musica
     G               F
mi riempie e non mi stanca mai
    E
dedicato solo a te

[INTRO] (x2) (Giulia_____)

**************

[Am]=x07500
[Am7+]=x06500
[Am7]=x05500
[Am6]=x04500
[Dm]=xx0760
[Dsus2]=xx0750
[MI]=xx6700
[SOL/SI]=x2003x
Suggest correction
Give kudos to tab author, rate the tab!
1 2 3 4 5
comments
print report bad tab
guest
You may want to rate the tab now too:
select rating
Wanna post a correction for this tab? Suggest correction