Oops, an error
Loading. Please wait.

Alabama Bound tab

version 1
version 1

Whole song

5,077 views 1 this week
2 commentsread comments
1 2 3 4 5
3 more votes to show rating
add to favorites
×
Save as Personal and add changes to this tab that will be seen only by you. Learn more ›
×
You can save this tab as Personal to edit and correct it or add notes. All changes will be seen only by you. Learn more »
launch autoscroll
font size
0
reset
how to read this tab
guitar tuner
edit
Autoscroll
slow
fast
+/-
esc
set tempo
stop
Author
Difficulty
Alabama Bound
By Huddie Leadbetter


I'm Alabama bound, 
|--------------------------|
|--------------------------|
|--------------------------|
|--------------------------|          X2
|----------2---4---2-------|
|--0---4---------------0---|


I'm Alabama bound, 
|--------------------------|
|--------------------------|
|--------------------------|
|------1---4---6---4-------|          X2
|--2-------------------2---|
|--------------------------|


and if the train don't stop and turn around
|---------------------------------|
|---------------------------------|
|---------------------------------|
|---------------------------------|      X1
|-2-2-2---7-7--5-5--4-5-4-5---2---|
|---------------------------------|

(repeat)

not to sure about all the lyrics but...

I'm Alabama bound, i'm Albama bound
I'm Alabama bound, i'm Albama bound
and if the train don't stop and turn around
I'm Alabama bound, i'm Albama bound

Now don't ya leave me here, now don't ya leave me here
Now don't ya leave me here, now don't ya leave me here
and if you will go anyhow
give me a dime for bail, give me a dime for bail

I'm Alabama bound, i'm Albama bound
I'm Alabama bound, i'm Albama bound
and if the train don't stop and turn around
I'm Alabama bound, i'm Albama bound

You ought a be like me, you ought a be like me
You ought a be like me, you ought a be like me
(???)
and let that King Kong be

I'm Alabama bound, i'm Albama bound
I'm Alabama bound, i'm Albama bound
and if the train don't stop and turn around
I'm Alabama bound, i'm Albama bound

the preachers in the stand, the preachers in the stand
pass his hand around, pass his hand around
singing brothers and sisters shoot your money to me
I'm Alabama bound, i'm Albama bound
I'm Alabama bound, i'm Albama bound

I'm Alabama bound, i'm Albama bound
I'm Alabama bound, i'm Albama bound
and if the train don't stop and turn around
I'm Alabama bound, i'm Albama bound

Ooh that preacher preach, ooh that preacher preach
sisters just turn around(?), sisters just turn around
yes n' the deacons in the corner hollerin sweet gal
I'm Alabama bound, i'm Albama bound
I'm Alabama bound, i'm Albama bound

I'm Alabama bound, i'm Albama bound
I'm Alabama bound, i'm Albama bound
and if the train don't stop and turn around
I'm Alabama bound, i'm Albama bound

I'm Alabama bound, i'm Albama bound
I'm Alabama bound, i'm Albama bound

I'm Alabama bound, i'm Albama bound
I'm Alabama bound, i'm Albama bound
and if the train don't stop and turn around
I'm Alabama bound, i'm Albama bound



Tabbed by Reynolds1203 (AnthonyGriffin)

            
            
Suggest correction
Creating personal tab
Creating personal tab
You can edit any tab online and save it as your Personal.

You can edit, replace or remove any tab part or add personal notes – all changes will be seen only by you.

Personal tabs can be accessed anytime from any device, even offline.
Learn more »
Give kudos to tab author, rate the tab!
1 2 3 4 5
comments
print report bad tab
2 comments total.
0 reply
vanwolf 10 Jan 11, 2015 04:46 AM

|--------------------------|
|--------------------------|
|--------------------------|
|--------------------------| X2
|----------2---4---2-------|
|--0---4---------------0---|

I'm Alabama bound,
|--------------------------|
|--------------------------|
|--------------------------|
|------2---4---2-----------| X2
|--0-------------------2---|
|--------------------------|

and if the train don't stop and turn around
|---------------------------------|
|---------------------------------|
|---------------------------------|
|---------------------------------| X1
|-2-2-4---7----4-5--4-5-4----2---|
|---------------------------------|

this sounds better, in my opinion

0 reply
vanwolf 10 Jan 11, 2015 04:49 AM

I'm Alabama bound,
|--------------------------|
|--------------------------|
|--------------------------|
|-------2---4---2----------| X2
|--0--4----------------0---|
|--------------------------|
Oops

guest
You may want to rate the tab now too:
select rating
Wanna post a correction for this tab? Suggest correction