Oops, an error
Loading. Please wait.

Alabama Bound tab

version 3
version 3

Whole song

328 views 1 this week
no commentswrite comment
1 2 3 4 5
3 more votes to show rating
add to favorites
×
Save as Personal and add changes to this tab that will be seen only by you. Learn more ›
×
You can save this tab as Personal to edit and correct it or add notes. All changes will be seen only by you. Learn more »
launch autoscroll
font size
0
reset
how to read this tab
guitar tuner
edit
Autoscroll
slow
fast
+/-
esc
set tempo
stop
Author
  Okay, Just throwing up how I play this classic Leadbelly song.
  Others have the same intros, but it's that third bit catches people out,
  mines a bit easier, and truer sounding, to my ears anyways

     If you like it, look at it, love it or hate it
                                                    RATE IT !

                                                          flatwound
                        ALABAMA BOUND

        I'm Alabama bound      I'm Alabama bound
   e|------------------------------------------------|
   B|------------------------------------------------|
   G|------------------------------------------------|
   D|------------------------------------------------|
   A|---------2--4--2-----------------2--4--2--------|
   E|--0--4------------0-------0--4------------0-----|

        I'm Alabama bound      I'm Alabama bound
   e|------------------------------------------------|
   B|------------------------------------------------|
   G|------------------------------------------------|
   D|---------2--4--2----------------2--4--2---------|
   A|--0--4------------0------0--4------------0------|
   E|------------------------------------------------|

      And if this train Don't stop And turn around
   e|------------------------------------------------|
   B|------------------------------------------------|
   G|------------------------------------------------|
   D|----------0---2-----0-------------0-------------|
   A|--0---4------------------4----2-------4--2------|
   E|------------------------------------------------|

       I'm Alabama bound     I'm Alabama bound
   e|------------------------------------------------|
   B|------------------------------------------------|
   G|------------------------------------------------|
   D|------------------------------------------------|
   A|---------2--4--2----------------2--4--2---------|
   E|--0--4------------0------0--4------------0------|

            
            
Suggest correction
Creating personal tab
Creating personal tab
You can edit any tab online and save it as your Personal.

You can edit, replace or remove any tab part or add personal notes – all changes will be seen only by you.

Personal tabs can be accessed anytime from any device, even offline.
Learn more »
Give kudos to tab author, rate the tab!
1 2 3 4 5
comments
print report bad tab
guest
You may want to rate the tab now too:
select rating
Wanna post a correction for this tab? Suggest correction