Oops, an error
Loading. Please wait.

Dancing With Tears In My Eyes tab

52 views 1 this week
no commentswrite comment
1 2 3 4 5
3 more votes to show rating
add to favorites
×
Save as Personal and add changes to this tab that will be seen only by you. Learn more ›
×
You can save this tab as Personal to edit and correct it or add notes. All changes will be seen only by you. Learn more »
launch autoscroll
font size
0
reset
how to read this tab
guitar tuner
edit
Autoscroll
slow
fast
+/-
esc
set tempo
stop
About this tab version
This tab of Leadbelly's "Dancing With Tears in My Eyes" is transcribed for a six string guitar in Standard Tuning, compared to Leadbelly's twelve string guitar which was in a dropped standard tuning around BEADF#B. https://www.youtube.com/watch?v=n7d6Ukr6d_w. Was this info helpful? Yes No
 _ _ _ _ _ _ _ _ _ _ _ _ _ _ _ _ _ _ _ _ _ _ _ _ _ _ _ _ _ _ _ _ _ _ _ _ _ _ _
|                                                                             |
| Artist: Leadbelly  "King of the Twelve String"                              |
|                                                                             |
| Album: Lead Belly's Last Sessions (1948, a year before Leadbelly's death.)  |
|                                                                             |
| Tabbed & Arranged by: Joe Studer, AKA StuNasty                   |
|_ _ _ _ _ _ _ _ _ _ _ _ _ _ _ _ _ _ _ _ _ _ _ _ _ _ _ _ _ _ _ _ _ _ _ _ _ _ _|


  G
e|--------3----3-----|--------3----------|-------------------|-------------------|
B|--------0----0-----|--------0----------|-------------------|-------------------|
G|--------0----0-----|--------0----------|--0--0-------------|-------------------|
D|--------0----0-----|--------0---0--2--0|--------4--4--2--2-|--0--0-------------|
A|--------2----2-----|--------2----------|-------------------|--------2--2--0--0-|
E|---3----3----3-----|---3----3----------|-------------------|-------------------|
                                            Dancing      with  tears  in    my   
                   
                 E               D                   F#               A
e|-----------------0-|----------------2--|---------------2---|-------------2--2--|
B|-----------------0-|----------------3--|---------------2---|-------------2--2--|
G|-----------------1-|----------------2--|---------------3---|-------------2--2--|
D|-----------------2-|-----------0----0--|---0---2---4---4---|--2--4--2----2--2--|
A|-2-2-------------2-|--0h2h4------------|-------------------|-------------------|
E|------3--3--2--0---|-------------------|-------------------|-------------------|
   eyes                cus the   girl        in  my  arms       isn’t you

                                                                  C
e|-------------------|-------------------|-------------------|-----------0--0----|
B|--------0----------|-------------------|-------------------|-----------1--1----|
G|--------0----------|----2----2----0----|-------------------|-----------0--0----|
D|--------0-----0----|-------------------|----4----2---------|-----------2--2----|
A|----2--------------|-------------------|--------------0----|----3------3--3----|
E|-------------------|-------------------|-------------------|-------------------|
                          Dancing   with      some body           new

     G                          D                    F#               Bm
e|--------3----------|--------------2----|---------------2---|-------------2--2---|
B|--------0----------|--------------3----|---------------2---|-------------0--0---|
G|--------0----------|--------------2----|---------------3---|-------------2--2---|
D|--------0----------|----------0---0----|---0---2---4---4---|--2-4-0------1--1---|
A|--------2----------|--0h2h4------------|-------------------|---------2---2--2---|
E|---3----3----------|-------------------|-------------------|--------------------|
                       When it’s you        that my hearts      calling to.  

                                  A                    C#             A
e|---------0---------|---------------2-2-|-------------------|-------------2-2---|
B|---------0---------|---------------2-2-|----------------2--|-------------2-2---|
G|---------0---------|---------------2-2-|----0--0--------0--|-------------2-2---|
D|---------0---------|---0--0--0--2--2-2-|---0------------3--|-------------2-2---|
A|---------------0---|--2--3--4----------|------4--2-0-4--4--|--4--2--0----------|
E|----2--------------|-------------------|-------------------|-------------------|
                       Trying to smile,     once in a  while   but i’ll find

                       F#                                                      
e|------2------------|----2--2--2--2-----|-------------------|-------------------|
B|------2------------|----2--2--2--2-----|-------------------|-------------------|
G|------2------------|----3--3--3--3-----|----------0--------|-------------------|
D|---2--2----0--2----|-4--4--4--4--4-----|--0-2-0------4--2--|--0----------------|
A|-------------------|-------------------|-------------------|-------2--0--0h2---|
E|-------------------|-------------------|-------------------|-------------------|
     It     just wont  do                          dancing with tears in my eyes

             E                 F#                  A                G
e|--------------0----|--------------2----|--------------2----|---------3--3--3---|
B|--------------0----|--------------2----|--------------2----|---------0--0--0---|
G|--------------1----|--------------3----|--------------2----|------0--0--0--0---|
D|--------------2----|--0---2---4---4----|--2---4---2---2----|---0-----0--0--0---|
A|--------------2----|-------------------|-------------------|---------2--2--2---| 
E|--3--3--2--0-------|-------------------|-------------------|---------3--3--3---|  
                       Cus the  girl       in   my arms         aint you.


************************************
| h   Hammer-on
************************************

            
            
Suggest correction
Creating personal tab
Creating personal tab
You can edit any tab online and save it as your Personal.

You can edit, replace or remove any tab part or add personal notes – all changes will be seen only by you.

Personal tabs can be accessed anytime from any device, even offline.
Learn more »
Give kudos to tab author, rate the tab!
1 2 3 4 5
comments
print report bad tab
guest
You may want to rate the tab now too:
select rating
Wanna post a correction for this tab? Suggest correction