Oops, an error
Loading. Please wait.

John Henry Tab

13 views 1 this week
no commentswrite comment
1 2 3 4 5
2 more votes to show rating
add to favorites
launch autoscroll
font size
0
reset
how to read this tab
guitar tuner
Autoscroll
slow
fast
+/-
esc
set tempo
stop
Help us to improve Ultimate-Guitar.com Take our survey!
×
Author
Difficulty
Tuning
intermediate
C F A# D# G C
About this tab version
Lyrics and music are based on version from "Lead Belly's Last Sessions." Last four lines of each verse and the latter half of the intro and solo are simplified from the recording. Spoken parts removed. Was this info helpful? Yes No
[Intro]

 b|-------------------------------------------------|-------2-----------------------2-----------------|
F#|-------------------------------------------------|-------3-----------------------3-----------------|
 D|-------------------------0-----------------------|-------2-----------------------2-----------------|
 A|-------------0-----2-----------2-----0-----------|-0-----------------------0-----------------------|
 E|-------2-----------------------------------2-----|-------------0-----------------------0-----------|
 B|-3-----------------------------------------------|-------------------2-----------------------2-----|

 b|-------------------------------------------------|-------0-----------0-----------0-----0-----------|
F#|-------------------------------------------------|-------2-----------2-----------2-----2-----------|
 D|-------------------------0-----------------------|-------2-----------2-----------2-----2-----------|
 A|-------------0-----2-----------2-----0-----------|-------2-----2-----------------2-----2-----------|
 E|-------2-----------------------------------2-----|-0-----------------------0-----------------0h2h4-|
 B|-3-----------------------------------------------|-------------------------------------------------|

 b|-------------------------------------------------|-------2-----------2-----------2-----2-----------|
F#|-------------------------------------------------|-------2-----------2-----------3-----3-----------|
 D|-------------------------------------------------|-------0-----------0-----------2-----2-----------|
 A|-0-----2-----3-----4-----0-----------------------|-------------------------0-----------------------|
 E|-------------------------------2-----0-----------|-------------2-----------------------------0-----|
 B|-------------------------------------------2-----|-3-----------------------------------------------|

 b|----2--2--2--2--2--2--2-----2--2--2-----2--2--2--|----2--2--2--2--2--2--2-----2--2--2-----2--2--2--|
F#|----3--3--3--3--3--3--3-----3--3--3-----3--3--3--|----3--3--3--3--3--3--3-----3--3--3-----3--3--3--|
 D|----2--2--2--1--2--2--2-----2--2--2-----2--2--2--|----2--2--2--1--2--2--2-----2--2--2-----2--2--2--|
 A|-0-----------------------0-----------------------|-0-----------------------0-----------------------|
 E|-------------------------------------0-----------|-------------------------------------0-----------|
 B|-------------------------------------------------|-------------------------------------------------|

 b|-------2-----2-----2-----------0-----------0-----|-------2-----------2--------2--2--2-----2--2--2--|
F#|-------3-----3-----3-----------2-----------2-----|-------3-----------3--------3--3--3-----3--3--3--|
 D|-------2-----1-----2-----------2-----------2-----|-------2-----------2--------2--2--2-----2--2--2--|
 A|-0-----------------------------------2-----------|-0-----------------------0-----------------------|
 E|-------------------------0-----------------------|-------------0-----------------------0-----------|
 B|-------------------------------------------------|-------------------------------------------------|

 b|-------2-----2-----2--------2--2--2-----2--2--2--|-------2-----2-----2--------2--2--2-----2--2--2--|
F#|-------3-----3-----3--------3--3--3-----3--3--3--|-------3-----3-----3--------3--3--3-----3--3--3--|
 D|-------2-----1-----2--------2--2--2-----2--2--2--|-------2-----1-----2--------2--2--2-----2--2--2--|
 A|-0-----------------------0-----------------------|-0-----------------------0-----------------------|
 E|-------------------------------------0-----------|-------------------------------------0-----------|
 B|-------------------------------------------------|-------------------------------------------------|

                                                                                         John
 b|-------2-----2-----2-----------0-----------0-----|-------2-----------2-----------2-----2-----2-----|
F#|-------3-----3-----3-----------2-----------2-----|-------3-----------3-----------3-----3-----3-----|
 D|-------2-----1-----2-----------2-----------2-----|-------2-----------2-----------2-----2-----2-----|
 A|-0-----------------------------------2-----------|-0-----------------------0-----------------------|
 E|-------------------------0-----------------------|-------------0-----------------------------------|
 B|-------------------------------------------------|-------------------------------------------------|


[Verse 1]

   Henry           was a   new-born            baby,                                     sittin' 
 b|-------2-----------2-----------2-----------2-----|-------2-----------------------2-----------------|
F#|-------2-----------2-----------2-----------2-----|-------3-----------------------3-----------------|
 D|-------0-----------0-----------0-----------0-----|-------2-----------------------2-----------------|
 A|-------------------------0-----------------------|-0-----------------------0-----------------------|
 E|-------------2-----------------------2-----------|-------------0-----------------------0-----------|
 B|-3-----------------------------------------------|-------------------2-----------------------2-----|

  down       on   his      mama's                   knee                                      Say, "That
 b|-------2-----------2-----------2-----------2-----|-------0-----------0-----------0-----0-----------|
F#|-------2-----------2-----------2-----------2-----|-------2-----------2-----------2-----2-----------|
 D|-------0-----------0-----------0-----------0-----|-------2-----------2-----------2-----2-----------|
 A|-------------------------0-----------------------|-------2-----2-----------------2-----2-----------|
 E|-------------2-----------------------2-----------|-0-----------------------0-----------------0h2h4-|
 B|-3-----------------------------------------------|-------------------------------------------------|

   Big Bend            Tunnel          on   that      C     &     O          Road,             It's
 b|-------------------------------------------------|-------2-----------2-----------2-----2-----------|
F#|-------------------------------------------------|-------2-----------2-----------3-----3-----------|
 D|-------------------------------------------------|-------0-----------0-----------2-----2-----------|
 A|-0-----2-----3-----4-----0-----------------------|-------------------------0-----------------------|
 E|-------------------------------2-----0-----------|-------------2-----------------------------0-----|
 B|-------------------------------------------2-----|-3-----------------------------------------------|

   gonna       be the      death       of            me,         Lord,       Lord              It's
 b|----2--2--2--2--2--2--2-----2--2--2-----2--2--2--|-------2-----2-----2--------2--2--2-----2--2--2--|
F#|----3--3--3--3--3--3--3-----3--3--3-----3--3--3--|-------3-----3-----3--------3--3--3-----3--3--3--|
 D|----2--2--2--1--2--2--2-----2--2--2-----2--2--2--|-------2-----1-----2--------2--2--2-----2--2--2--|
 A|-0-----------------------0-----------------------|-0-----------------------0-----------------------|
 E|-------------------------------------0-----------|-------------------------------------0-----------|
 B|-------------------------------------------------|-------------------------------------------------|

   gonna       be the      death       of            me.                                       It's
 b|-------2-----2-----2-----------0-----------0-----|-------2-----------2--------2--2--2-----2--2--2--|
F#|-------3-----3-----3-----------2-----------2-----|-------3-----------3--------3--3--3-----3--3--3--|
 D|-------2-----1-----2-----------2-----------2-----|-------2-----------2--------2--2--2-----2--2--2--|
 A|-0-----------------------------------2-----------|-0-----------------------0-----------------------|
 E|-------------------------0-----------------------|-------------0-----------------------0-----------|
 B|-------------------------------------------------|-------------------------------------------------|

   gonna       be the      death       of            me,         Lord,       Lord              It's
 b|----2--2--2--2--2--2--2-----2--2--2-----2--2--2--|-------2-----2-----2--------2--2--2-----2--2--2--|
F#|----3--3--3--3--3--3--3-----3--3--3-----3--3--3--|-------3-----3-----3--------3--3--3-----3--3--3--|
 D|----2--2--2--1--2--2--2-----2--2--2-----2--2--2--|-------2-----1-----2--------2--2--2-----2--2--2--|
 A|-0-----------------------0-----------------------|-0-----------------------0-----------------------|
 E|-------------------------------------0-----------|-------------------------------------0-----------|
 B|-------------------------------------------------|-------------------------------------------------|

   gonna       be the      death       of            me.                                 John
 b|-------2-----2-----2-----------0-----------0-----|-------2-----------2-----------2-----2-----2-----|
F#|-------3-----3-----3-----------2-----------2-----|-------3-----------3-----------3-----3-----3-----|
 D|-------2-----1-----2-----------2-----------2-----|-------2-----------2-----------2-----2-----2-----|
 A|-0-----------------------------------2-----------|-0-----------------------0-----------------------|
 E|-------------------------0-----------------------|-------------0-----------------------------------|
 B|-------------------------------------------------|-------------------------------------------------|


[Verse 2]

  Henry        had             two     women,                                              one was 
 b|-------2-----------2-----------2-----------2-----|-------2-----------------------2-----------------|
F#|-------2-----------2-----------2-----------2-----|-------3-----------------------3-----------------|
 D|-------0-----------0-----------0-----------0-----|-------2-----------------------2-----------------|
 A|-------------------------0-----------------------|-0-----------------------0-----------------------|
 E|-------------2-----------------------2-----------|-------------0-----------------------0-----------|
 B|-3-----------------------------------------------|-------------------2-----------------------2-----|

  named        Mary        Magdalene                                                        He would
 b|-------2-----------2-----------2-----------2-----|-------0-----------0-----------0-----0-----------|
F#|-------2-----------2-----------2-----------2-----|-------2-----------2-----------2-----2-----------|
 D|-------0-----------0-----------0-----------0-----|-------2-----------2-----------2-----2-----------|
 A|-------------------------0-----------------------|-------2-----2-----------------2-----2-----------|
 E|-------------2-----------------------2-----------|-0-----------------------0-----------------0h2h4-|
 B|-3-----------------------------------------------|-------------------------------------------------|

   go    out   on    the   job         and           she        would        sing,             "Hear
 b|-------------------------------------------------|-------2-----------2-----------2-----2-----------|
F#|-------------------------------------------------|-------2-----------2-----------3-----3-----------|
 D|-------------------------------------------------|-------0-----------0-----------2-----2-----------|
 A|-0-----2-----3-----4-----0-----------------------|-------------------------0-----------------------|
 E|-------------------------------2-----0-----------|-------------2-----------------------------0-----|
 B|-------------------------------------------2-----|-3-----------------------------------------------|

  John Henry's             hammer                    ring,       Lord,       Lord,              Hear
 b|----2--2--2--2--2--2--2-----2--2--2-----2--2--2--|-------2-----2-----2--------2--2--2-----2--2--2--|
F#|----3--3--3--3--3--3--3-----3--3--3-----3--3--3--|-------3-----3-----3--------3--3--3-----3--3--3--|
 D|----2--2--2--1--2--2--2-----2--2--2-----2--2--2--|-------2-----1-----2--------2--2--2-----2--2--2--|
 A|-0-----------------------0-----------------------|-0-----------------------0-----------------------|
 E|-------------------------------------0-----------|-------------------------------------0-----------|
 B|-------------------------------------------------|-------------------------------------------------|

  John Henry's             hammer                    ring.                                      Hear
 b|-------2-----2-----2-----------0-----------0-----|-------2-----------2--------2--2--2-----2--2--2--|
F#|-------3-----3-----3-----------2-----------2-----|-------3-----------3--------3--3--3-----3--3--3--|
 D|-------2-----1-----2-----------2-----------2-----|-------2-----------2--------2--2--2-----2--2--2--|
 A|-0-----------------------------------2-----------|-0-----------------------0-----------------------|
 E|-------------------------0-----------------------|-------------0-----------------------0-----------|
 B|-------------------------------------------------|-------------------------------------------------|

  John Henry's             hammer                    ring,       Lord,       Lord,              Hear
 b|----2--2--2--2--2--2--2-----2--2--2-----2--2--2--|-------2-----2-----2--------2--2--2-----2--2--2--|
F#|----3--3--3--3--3--3--3-----3--3--3-----3--3--3--|-------3-----3-----3--------3--3--3-----3--3--3--|
 D|----2--2--2--1--2--2--2-----2--2--2-----2--2--2--|-------2-----1-----2--------2--2--2-----2--2--2--|
 A|-0-----------------------0-----------------------|-0-----------------------0-----------------------|
 E|-------------------------------------0-----------|-------------------------------------0-----------|
 B|-------------------------------------------------|-------------------------------------------------|

  John Henry's             hammer                    ring."                              John
 b|-------2-----2-----2-----------0-----------0-----|-------2-----------2-----------2-----2-----2-----|
F#|-------3-----3-----3-----------2-----------2-----|-------3-----------3-----------3-----3-----3-----|
 D|-------2-----1-----2-----------2-----------2-----|-------2-----------2-----------2-----2-----2-----|
 A|-0-----------------------------------2-----------|-0-----------------------0-----------------------|
 E|-------------------------0-----------------------|-------------0-----------------------------------|
 B|-------------------------------------------------|-------------------------------------------------|


[Verse 3]

   Henry           had    another     little         woman,                                   her 
 b|-------2-----------2-----------2-----------2-----|-------2-----------------------2-----------------|
F#|-------2-----------2-----------2-----------2-----|-------3-----------------------3-----------------|
 D|-------0-----------0-----------0-----------0-----|-------2-----------------------2-----------------|
 A|-------------------------0-----------------------|-0-----------------------0-----------------------|
 E|-------------2-----------------------2-----------|-------------0-----------------------0-----------|
 B|-3-----------------------------------------------|-------------------2-----------------------2-----|

   name was       sweet    Polly                     Ann                                      John
 b|-------2-----------2-----------2-----------2-----|-------0-----------0-----------0-----0-----------|
F#|-------2-----------2-----------2-----------2-----|-------2-----------2-----------2-----2-----------|
 D|-------0-----------0-----------0-----------0-----|-------2-----------2-----------2-----2-----------|
 A|-------------------------0-----------------------|-------2-----2-----------------2-----2-----------|
 E|-------------2-----------------------2-----------|-0-----------------------0-----------------0h2h4-|
 B|-3-----------------------------------------------|-------------------------------------------------|

  Henry       taken       sick, boy,   and   he      had   to    go   to     bed               
 b|-------------------------------------------------|-------2-----------2-----------2-----2-----------|
F#|-------------------------------------------------|-------2-----------2-----------3-----3-----------|
 D|-------------------------------------------------|-------0-----------0-----------2-----2-----------|
 A|-0-----2-----3-----4-----0-----------------------|-------------------------0-----------------------|
 E|-------------------------------2-----0-----------|-------------2-----------------------------0-----|
 B|-------------------------------------------2-----|-3-----------------------------------------------|

  Polly     Ann     drove  steel just  like a        man,        Lord,       Lord
 b|----2--2--2--2--2--2--2-----2--2--2-----2--2--2--|-------2-----2-----2--------2--2--2-----2--2--2--|
F#|----3--3--3--3--3--3--3-----3--3--3-----3--3--3--|-------3-----3-----3--------3--3--3-----3--3--3--|
 D|----2--2--2--1--2--2--2-----2--2--2-----2--2--2--|-------2-----1-----2--------2--2--2-----2--2--2--|
 A|-0-----------------------0-----------------------|-0-----------------------0-----------------------|
 E|-------------------------------------0-----------|-------------------------------------0-----------|
 B|-------------------------------------------------|-------------------------------------------------|

  Polly     Ann     drove  steel       like a        man.
 b|-------2-----2-----2-----------0-----------0-----|-------2-----------2--------2--2--2-----2--2--2--|
F#|-------3-----3-----3-----------2-----------2-----|-------3-----------3--------3--3--3-----3--3--3--|
 D|-------2-----1-----2-----------2-----------2-----|-------2-----------2--------2--2--2-----2--2--2--|
 A|-0-----------------------------------2-----------|-0-----------------------0-----------------------|
 E|-------------------------0-----------------------|-------------0-----------------------0-----------|
 B|-------------------------------------------------|-------------------------------------------------|

  Polly     Ann     drove  steel just  like a        man,        Lord,       Lord
 b|----2--2--2--2--2--2--2-----2--2--2-----2--2--2--|-------2-----2-----2--------2--2--2-----2--2--2--|
F#|----3--3--3--3--3--3--3-----3--3--3-----3--3--3--|-------3-----3-----3--------3--3--3-----3--3--3--|
 D|----2--2--2--1--2--2--2-----2--2--2-----2--2--2--|-------2-----1-----2--------2--2--2-----2--2--2--|
 A|-0-----------------------0-----------------------|-0-----------------------0-----------------------|
 E|-------------------------------------0-----------|-------------------------------------0-----------|
 B|-------------------------------------------------|-------------------------------------------------|

  Polly     Ann     drove  steel       like a        man.
 b|-------2-----2-----2-----------0-----------0-----|-------2-----------2-----------2-----2-----2-----|
F#|-------3-----3-----3-----------2-----------2-----|-------3-----------3-----------3-----3-----3-----|
 D|-------2-----1-----2-----------2-----------2-----|-------2-----------2-----------2-----2-----2-----|
 A|-0-----------------------------------2-----------|-0-----------------------0-----------------------|
 E|-------------------------0-----------------------|-------------0-----------------------------------|
 B|-------------------------------------------------|-------------------------------------------------|


[Verse 4]

 "Baby, who's  gonna      shoe your   little         feet,                                 tell me, 
 b|-------2-----------2-----------2-----------2-----|-------2-----------------------2-----------------|
F#|-------2-----------2-----------2-----------2-----|-------3-----------------------3-----------------|
 D|-------0-----------0-----------0-----------0-----|-------2-----------------------2-----------------|
 A|-------------------------0-----------------------|-0-----------------------0-----------------------|
 E|-------------2-----------------------2-----------|-------------0-----------------------0-----------|
 B|-3-----------------------------------------------|-------------------2-----------------------2-----|

  who's     gonna         glove       your           hand?                                 Tell me, 
 b|-------2-----------2-----------2-----------2-----|-------0-----------0-----------0-----0-----------|
F#|-------2-----------2-----------2-----------2-----|-------2-----------2-----------2-----2-----------|
 D|-------0-----------0-----------0-----------0-----|-------2-----------2-----------2-----2-----------|
 A|-------------------------0-----------------------|-------2-----2-----------------2-----2-----------|
 E|-------------2-----------------------2-----------|-0-----------------------0-----------------0h2h4-|
 B|-3-----------------------------------------------|-------------------------------------------------|

  who's        gonna      kiss        your          sweet       little      lips,         now
 b|-------------------------------------------------|-------2-----------2-----------2-----2-----------|
F#|-------------------------------------------------|-------2-----------2-----------3-----3-----------|
 D|-------------------------------------------------|-------0-----------0-----------2-----2-----------|
 A|-0-----2-----3-----4-----0-----------------------|-------------------------0-----------------------|
 E|-------------------------------2-----0-----------|-------------2-----------------------------0-----|
 B|-------------------------------------------2-----|-3-----------------------------------------------|

Tell me, who's gonna       be         your           man,        Lord,       Lord
 b|----2--2--2--2--2--2--2-----2--2--2-----2--2--2--|-------2-----2-----2--------2--2--2-----2--2--2--|
F#|----3--3--3--3--3--3--3-----3--3--3-----3--3--3--|-------3-----3-----3--------3--3--3-----3--3--3--|
 D|----2--2--2--1--2--2--2-----2--2--2-----2--2--2--|-------2-----1-----2--------2--2--2-----2--2--2--|
 A|-0-----------------------0-----------------------|-0-----------------------0-----------------------|
 E|-------------------------------------0-----------|-------------------------------------0-----------|
 B|-------------------------------------------------|-------------------------------------------------|

Tell me, who's gonna       be         your           man.
 b|-------2-----2-----2-----------0-----------0-----|-------2-----------2--------2--2--2-----2--2--2--|
F#|-------3-----3-----3-----------2-----------2-----|-------3-----------3--------3--3--3-----3--3--3--|
 D|-------2-----1-----2-----------2-----------2-----|-------2-----------2--------2--2--2-----2--2--2--|
 A|-0-----------------------------------2-----------|-0-----------------------0-----------------------|
 E|-------------------------0-----------------------|-------------0-----------------------0-----------|
 B|-------------------------------------------------|-------------------------------------------------|

Tell me, who's gonna       be         your           man,        Lord,       Lord
 b|----2--2--2--2--2--2--2-----2--2--2-----2--2--2--|-------2-----2-----2--------2--2--2-----2--2--2--|
F#|----3--3--3--3--3--3--3-----3--3--3-----3--3--3--|-------3-----3-----3--------3--3--3-----3--3--3--|
 D|----2--2--2--1--2--2--2-----2--2--2-----2--2--2--|-------2-----1-----2--------2--2--2-----2--2--2--|
 A|-0-----------------------0-----------------------|-0-----------------------0-----------------------|
 E|-------------------------------------0-----------|-------------------------------------0-----------|
 B|-------------------------------------------------|-------------------------------------------------|

Tell me, who's gonna       be         your           man?"                                     "My
 b|-------2-----2-----2-----------0-----------0-----|-------2-----------2-----------2-----2-----2-----|
F#|-------3-----3-----3-----------2-----------2-----|-------3-----------3-----------3-----3-----3-----|
 D|-------2-----1-----2-----------2-----------2-----|-------2-----------2-----------2-----2-----2-----|
 A|-0-----------------------------------2-----------|-0-----------------------0-----------------------|
 E|-------------------------0-----------------------|-------------0-----------------------------------|
 B|-------------------------------------------------|-------------------------------------------------|


[Verse 5]

   papa's     gonna       shoe my     little         feet,                                      my 
 b|-------2-----------2-----------2-----------2-----|-------2-----------------------2-----------------|
F#|-------2-----------2-----------2-----------2-----|-------3-----------------------3-----------------|
 D|-------0-----------0-----------0-----------0-----|-------2-----------------------2-----------------|
 A|-------------------------0-----------------------|-0-----------------------0-----------------------|
 E|-------------2-----------------------2-----------|-------------0-----------------------0-----------|
 B|-3-----------------------------------------------|-------------------2-----------------------2-----|

   mama's     gonna       glove        my            hand                                       My
 b|-------2-----------2-----------2-----------2-----|-------0-----------0-----------0-----0-----------|
F#|-------2-----------2-----------2-----------2-----|-------2-----------2-----------2-----2-----------|
 D|-------0-----------0-----------0-----------0-----|-------2-----------2-----------2-----2-----------|
 A|-------------------------0-----------------------|-------2-----2-----------------2-----2-----------|
 E|-------------2-----------------------2-----------|-0-----------------------0-----------------0h2h4-|
 B|-3-----------------------------------------------|-------------------------------------------------|

  sister's    gonna       kiss         my           sweet        little      lips,           and you
 b|-------------------------------------------------|-------2-----------2-----------2-----2-----------|
F#|-------------------------------------------------|-------2-----------2-----------3-----3-----------|
 D|-------------------------------------------------|-------0-----------0-----------2-----2-----------|
 A|-0-----2-----3-----4-----0-----------------------|-------------------------0-----------------------|
 E|-------------------------------2-----0-----------|-------------2-----------------------------0-----|
 B|-------------------------------------------2-----|-3-----------------------------------------------|

  know        I don't      need        no            man,        Lord,       Lord                 You
 b|----2--2--2--2--2--2--2-----2--2--2-----2--2--2--|-------2-----2-----2--------2--2--2-----2--2--2--|
F#|----3--3--3--3--3--3--3-----3--3--3-----3--3--3--|-------3-----3-----3--------3--3--3-----3--3--3--|
 D|----2--2--2--1--2--2--2-----2--2--2-----2--2--2--|-------2-----1-----2--------2--2--2-----2--2--2--|
 A|-0-----------------------0-----------------------|-0-----------------------0-----------------------|
 E|-------------------------------------0-----------|-------------------------------------0-----------|
 B|-------------------------------------------------|-------------------------------------------------|

  know        I don't      need        no            man.                                         You
 b|-------2-----2-----2-----------0-----------0-----|-------2-----------2--------2--2--2-----2--2--2--|
F#|-------3-----3-----3-----------2-----------2-----|-------3-----------3--------3--3--3-----3--3--3--|
 D|-------2-----1-----2-----------2-----------2-----|-------2-----------2--------2--2--2-----2--2--2--|
 A|-0-----------------------------------2-----------|-0-----------------------0-----------------------|
 E|-------------------------0-----------------------|-------------0-----------------------0-----------|
 B|-------------------------------------------------|-------------------------------------------------|

  know        I don't      need        no            man,        Lord,       Lord                 You
 b|----2--2--2--2--2--2--2-----2--2--2-----2--2--2--|-------2-----2-----2--------2--2--2-----2--2--2--|
F#|----3--3--3--3--3--3--3-----3--3--3-----3--3--3--|-------3-----3-----3--------3--3--3-----3--3--3--|
 D|----2--2--2--1--2--2--2-----2--2--2-----2--2--2--|-------2-----1-----2--------2--2--2-----2--2--2--|
 A|-0-----------------------0-----------------------|-0-----------------------0-----------------------|
 E|-------------------------------------0-----------|-------------------------------------0-----------|
 B|-------------------------------------------------|-------------------------------------------------|

  know        I don't      need        no            man."
 b|-------2-----2-----2-----------0-----------0-----|-------2-----------2-----------2-----2-----2-----|
F#|-------3-----3-----3-----------2-----------2-----|-------3-----------3-----------3-----3-----3-----|
 D|-------2-----1-----2-----------2-----------2-----|-------2-----------2-----------2-----2-----2-----|
 A|-0-----------------------------------2-----------|-0-----------------------0-----------------------|
 E|-------------------------0-----------------------|-------------0-----------------------------------|
 B|-------------------------------------------------|-------------------------------------------------|


[Solo]

 b|-------------------------------------------------|-------2-----------------------2-----------------|
F#|-------------------------------------------------|-------3-----------------------3-----------------|
 D|-------------------------0-----------------------|-------2-----------------------2-----------------|
 A|-------------0-----2-----------2-----0-----------|-0-----------------------0-----------------------|
 E|-------2-----------------------------------2-----|-------------0-----------------------0-----------|
 B|-3-----------------------------------------------|-------------------2-----------------------2-----|

 b|-------------------------------------------------|-------0-----------0-----------0-----0-----------|
F#|-------------------------------------------------|-------2-----------2-----------2-----2-----------|
 D|-------------------------0-----------------------|-------2-----------2-----------2-----2-----------|
 A|-------------0-----2-----------2-----0-----------|-------2-----2-----------------2-----2-----------|
 E|-------2-----------------------------------2-----|-0-----------------------0-----------------0h2h4-|
 B|-3-----------------------------------------------|-------------------------------------------------|

 b|-------------------------------------------------|-------2-----------2-----------2-----2-----------|
F#|-------------------------------------------------|-------2-----------2-----------3-----3-----------|
 D|-------------------------------------------------|-------0-----------0-----------2-----2-----------|
 A|-0-----2-----3-----4-----0-----------------------|-------------------------0-----------------------|
 E|-------------------------------2-----0-----------|-------------2-----------------------------0-----|
 B|-------------------------------------------2-----|-3-----------------------------------------------|

 b|----2--2--2--2--2--2--2-----2--2--2-----2--2--2--|-------2-----2-----2--------2--2--2-----2--2--2--|
F#|----3--3--3--3--3--3--3-----3--3--3-----3--3--3--|-------3-----3-----3--------3--3--3-----3--3--3--|
 D|----2--2--2--1--2--2--2-----2--2--2-----2--2--2--|-------2-----1-----2--------2--2--2-----2--2--2--|
 A|-0-----------------------0-----------------------|-0-----------------------0-----------------------|
 E|-------------------------------------0-----------|-------------------------------------0-----------|
 B|-------------------------------------------------|-------------------------------------------------|

 b|-------2-----2-----2-----------0-----------0-----|-------2-----------2--------2--2--2-----2--2--2--|
F#|-------3-----3-----3-----------2-----------2-----|-------3-----------3--------3--3--3-----3--3--3--|
 D|-------2-----1-----2-----------2-----------2-----|-------2-----------2--------2--2--2-----2--2--2--|
 A|-0-----------------------------------2-----------|-0-----------------------0-----------------------|
 E|-------------------------0-----------------------|-------------0-----------------------0-----------|
 B|-------------------------------------------------|-------------------------------------------------|

 b|-------2-----2-----2--------2--2--2-----2--2--2--|-------2-----2-----2--------2--2--2-----2--2--2--|
F#|-------3-----3-----3--------3--3--3-----3--3--3--|-------3-----3-----3--------3--3--3-----3--3--3--|
 D|-------2-----1-----2--------2--2--2-----2--2--2--|-------2-----1-----2--------2--2--2-----2--2--2--|
 A|-0-----------------------0-----------------------|-0-----------------------0-----------------------|
 E|-------------------------------------0-----------|-------------------------------------0-----------|
 B|-------------------------------------------------|-------------------------------------------------|

                                                                                         Then they
 b|-------2-----2-----2-----------0-----------0-----|-------2-----------2-----------2-----2-----2-----|
F#|-------3-----3-----3-----------2-----------2-----|-------3-----------3-----------3-----3-----3-----|
 D|-------2-----1-----2-----------2-----------2-----|-------2-----------2-----------2-----2-----2-----|
 A|-0-----------------------------------2-----------|-0-----------------------0-----------------------|
 E|-------------------------0-----------------------|-------------0-----------------------------------|
 B|-------------------------------------------------|-------------------------------------------------|


[Verse 6]

  taken       John        Henry       to the        White House,                           they 
 b|-------2-----------2-----------2-----------2-----|-------2-----------------------2-----------------|
F#|-------2-----------2-----------2-----------2-----|-------3-----------------------3-----------------|
 D|-------0-----------0-----------0-----------0-----|-------2-----------------------2-----------------|
 A|-------------------------0-----------------------|-0-----------------------0-----------------------|
 E|-------------2-----------------------2-----------|-------------0-----------------------0-----------|
 B|-3-----------------------------------------------|-------------------2-----------------------2-----|

   buried      him         in         the            sand                                     And
 b|-------2-----------2-----------2-----------2-----|-------0-----------0-----------0-----0-----------|
F#|-------2-----------2-----------2-----------2-----|-------2-----------2-----------2-----2-----------|
 D|-------0-----------0-----------0-----------0-----|-------2-----------2-----------2-----2-----------|
 A|-------------------------0-----------------------|-------2-----2-----------------2-----2-----------|
 E|-------------2-----------------------2-----------|-0-----------------------0-----------------0h2h4-|
 B|-3-----------------------------------------------|-------------------------------------------------|

   every       locomotive             come        a-rollin'                  by,         sayin',
 b|-------------------------------------------------|-------2-----------2-----------2-----2-----------|
F#|-------------------------------------------------|-------2-----------2-----------3-----3-----------|
 D|-------------------------------------------------|-------0-----------0-----------2-----2-----------|
 A|-0-----2-----3-----4-----0-----------------------|-------------------------0-----------------------|
 E|-------------------------------2-----0-----------|-------------2-----------------------------0-----|
 B|-------------------------------------------2-----|-3-----------------------------------------------|

 "There lies   that        steel-drivin'             man,        Lord,       Lord
 b|----2--2--2--2--2--2--2-----2--2--2-----2--2--2--|-------2-----2-----2--------2--2--2-----2--2--2--|
F#|----3--3--3--3--3--3--3-----3--3--3-----3--3--3--|-------3-----3-----3--------3--3--3-----3--3--3--|
 D|----2--2--2--1--2--2--2-----2--2--2-----2--2--2--|-------2-----1-----2--------2--2--2-----2--2--2--|
 A|-0-----------------------0-----------------------|-0-----------------------0-----------------------|
 E|-------------------------------------0-----------|-------------------------------------0-----------|
 B|-------------------------------------------------|-------------------------------------------------|

 There lies    that        steel-drivin'             man.
 b|-------2-----2-----2-----------0-----------0-----|-------2-----------2--------2--2--2-----2--2--2--|
F#|-------3-----3-----3-----------2-----------2-----|-------3-----------3--------3--3--3-----3--3--3--|
 D|-------2-----1-----2-----------2-----------2-----|-------2-----------2--------2--2--2-----2--2--2--|
 A|-0-----------------------------------2-----------|-0-----------------------0-----------------------|
 E|-------------------------0-----------------------|-------------0-----------------------0-----------|
 B|-------------------------------------------------|-------------------------------------------------|

 There lies    that        steel-drivin'             man,        Lord,       Lord
 b|----2--2--2--2--2--2--2-----2--2--2-----2--2--2--|-------2-----2-----2--------2--2--2-----2--2--2--|
F#|----3--3--3--3--3--3--3-----3--3--3-----3--3--3--|-------3-----3-----3--------3--3--3-----3--3--3--|
 D|----2--2--2--1--2--2--2-----2--2--2-----2--2--2--|-------2-----1-----2--------2--2--2-----2--2--2--|
 A|-0-----------------------0-----------------------|-0-----------------------0-----------------------|
 E|-------------------------------------0-----------|-------------------------------------0-----------|
 B|-------------------------------------------------|-------------------------------------------------|

 There lies    that        steel-drivin'             man."
 b|-------2-----2-----2-----------0-----------0-----|-------2-----------2-----2-----------------------|
F#|-------3-----3-----3-----------2-----------2-----|-------3-----------3-----3-----------------------|
 D|-------2-----1-----2-----------2-----------2-----|-------2-----------2-----2-----------------------|
 A|-0-----------------------------------2-----------|-0-----------------------0-----------------------|
 E|-------------------------0-----------------------|-------------0-----------------------------------|
 B|-------------------------------------------------|-------------------------------------------------|


***********************************
| h   Hammer-on
***********************************
Suggest correction
Give kudos to tab author, rate the tab!
1 2 3 4 5
comments
print report bad tab
guest
You may want to rate the tab now too:
select rating
Wanna post a correction for this tab? Suggest correction