Oops, an error
Loading. Please wait.

Where Did You Sleep Last Night Tab

148,012 views 216 this week
10 commentsread comments
1 2 3 4 5
x 48
add to favorites
launch autoscroll
font size
0
reset
how to read this tab
guitar tuner
Autoscroll
slow
fast
+/-
esc
set tempo
stop
Help us to improve Ultimate-Guitar.com Take our survey!
×
Tuning
E A D G B E
[INTRO - Part 1]

  E7        E7/B      A/E            G         B         B/F#    E7        E7/E'
e|---------|---------|--------------|---------|---------|-------|---------|---------|
B|---------|---------|---------2-2--|----0-0--|---------|-------|---------|---------|
G|----7-7--|----7----|---------2-2--|----0-0--|----4-4--|---4---|----7-7--|----7-7--|
D|----6-6--|----6----|---------2-2--|----0-0--|----4-4--|---4---|----6-6--|----6-6--|
A|----7-7--|---------|------0-------|----2-2--|-2-------|-------|----7-7--|-7--7-7--|
E|-0-------|--7------|-0h2h4--------|-3-------|---------|-2---4-|-0-------|---------|


[INTRO - Part 2]

  E            E           A/E            G         B         B/F#    E7        E7/B
e|------------|-----------|--------------|---------|---------|-------|---------|--------|
B|------------|-----------|---------2-2--|----0-0--|---------|-------|---------|--------|
G|------------|-----------|---------2-2--|----0-0--|----4-4--|-------|----7-7--|----7-7-|
D|----------2-|---------2-|---------2-2--|----0-0--|----4-4--|-------|----6-6--|----6-6-|
A|----------2-|------2--2-|------0-------|----2-2--|-2-------|-------|----7-7--|----7-7-|
E|-0h2h4p0----|-0h2h4-----|-0h2h4--------|-3-------|---------|-2-4-2-|-0-------|-7------|


[RIFF 1]

   E7        E7/B      A/E            G         B        B/F#    E7        E7/B
e|---------|---------|--------------|---------|---------|-------|---------|---------|
B|---------|---------|---------2-2--|----0-0--|---------|-------|---------|---------|
G|----7-7--|----7----|---------2-2--|----0-0--|----4-4--|---4---|----7-7--|----7-7--|
D|----6-6--|----6----|---------2-2--|----0-0--|----4-4--|---4---|----6-6--|----6-6--|
A|----7-7--|---------|------0-------|----2-2--|-2-------|-------|----7-7--|----7-7--|
E|-0-------|--7------|-0h2h4--------|-3-------|---------|-2---4-|-0-------|-7-------|
 
                                lyrics: (Repeat RIFF 1 for each line)
   E7       E7/B        A/E    G
my girl, my girl, don't lie to me,
        B             B/F#       E7      E7/B
tell me where did you sleep last night?(come on and tell me baby)
In the pines, in the pines, 
Where the sun don't ever shine,
I will shiver the whole night through.

My girl, my girl, where will you go,
I'm going where the cold wind blows.(where's that at baby?)
In the pines, in the pines, 
Where the sun don't ever shine,
I will shiver the whole night through.

my girl, my girl, don't you lie to me,
tell me where did you sleep last night?(come on and tell me something about it)
In the pines, in the pines, 
Where the sun don't ever shine,
I will shiver the whole night through.(shiver for me now)

                                Play INTRO PART 2 (x2)

(what happened down there?)
My husband was a hard working man,
Still a mile and a half from here.(what happened to him?)
His head was found in the driving wheel,
and his body never never been found.

my girl, my girl, don't you lie to me,
tell me where did you sleep last night?(come on and tell me something about it)
In the pines, in the pines, 
Where the sun don't ever shine,
I will shiver the whole night through.



************************************

| h  Hammer-on
| p  Pull-off

************************************
Suggest correction
comments
print report bad tab
10 comments total. Showing first comments.
+4 reply
goatman 10 Feb 19, 2006 05:40 PM

lets see some more leadbelly tabs on this site, if anyone knows any

+2 reply
Viva-la-mark 80 Jun 24, 2006 05:43 PM

Great Song, Great tab

+3 reply
rock_and_blues 132 Jan 27, 2007 06:46 PM

great tab, truely one of the greatest artists of the 20th century, and a classic song at that...hell Huddies whole catalog outta be on UG

guest
You may want to rate the tab now too:
select rating
Wanna post a correction for this tab? Suggest correction